  0
SECTION
  2
HEADER
  9
$ACADVER
  1
AC1009
  9
$DWGCODEPAGE
  3
ansi_1252
  9
$INSBASE
 10
0.0
 20
0.0
 30
0.0
  9
$EXTMIN
 10
-155.2138402658279
 20
-165.02265
 30
0.0
  9
$EXTMAX
 10
155.1641662826041
 20
165.02265
 30
0.0
  9
$LIMMIN
 10
0.0
 20
0.0
  9
$LIMMAX
 10
12.0
 20
9.0
  9
$ORTHOMODE
 70
     0
  9
$REGENMODE
 70
     1
  9
$FILLMODE
 70
     1
  9
$QTEXTMODE
 70
     0
  9
$MIRRTEXT
 70
     1
  9
$DRAGMODE
 70
     2
  9
$LTSCALE
 40
1.0
  9
$OSMODE
 70
    37
  9
$ATTMODE
 70
     1
  9
$TEXTSIZE
 40
0.2
  9
$TRACEWID
 40
0.05
  9
$TEXTSTYLE
  7
STANDARD
  9
$CLAYER
  8
0
  9
$CELTYPE
  6
BYLAYER
  9
$CECOLOR
 62
   256
  9
$DIMSCALE
 40
1.0
  9
$DIMASZ
 40
0.18
  9
$DIMEXO
 40
0.0625
  9
$DIMDLI
 40
0.38
  9
$DIMRND
 40
0.0
  9
$DIMDLE
 40
0.0
  9
$DIMEXE
 40
0.18
  9
$DIMTP
 40
0.0
  9
$DIMTM
 40
0.0
  9
$DIMTXT
 40
0.18
  9
$DIMCEN
 40
0.09
  9
$DIMTSZ
 40
0.0
  9
$DIMTOL
 70
     0
  9
$DIMLIM
 70
     0
  9
$DIMTIH
 70
     1
  9
$DIMTOH
 70
     1
  9
$DIMSE1
 70
     0
  9
$DIMSE2
 70
     0
  9
$DIMTAD
 70
     0
  9
$DIMZIN
 70
     0
  9
$DIMBLK
  1

  9
$DIMASO
 70
     1
  9
$DIMSHO
 70
     1
  9
$DIMPOST
  1

  9
$DIMAPOST
  1

  9
$DIMALT
 70
     0
  9
$DIMALTD
 70
     2
  9
$DIMALTF
 40
25.4
  9
$DIMLFAC
 40
1.0
  9
$DIMTOFL
 70
     0
  9
$DIMTVP
 40
0.0
  9
$DIMTIX
 70
     0
  9
$DIMSOXD
 70
     0
  9
$DIMSAH
 70
     0
  9
$DIMBLK1
  1

  9
$DIMBLK2
  1

  9
$DIMSTYLE
  2
STANDARD
  9
$DIMCLRD
 70
     0
  9
$DIMCLRE
 70
     0
  9
$DIMCLRT
 70
     0
  9
$DIMTFAC
 40
1.0
  9
$DIMGAP
 40
0.09
  9
$LUNITS
 70
     2
  9
$LUPREC
 70
     4
  9
$SKETCHINC
 40
0.1
  9
$FILLETRAD
 40
0.5
  9
$AUNITS
 70
     0
  9
$AUPREC
 70
     0
  9
$MENU
  1
.
  9
$ELEVATION
 40
0.0
  9
$PELEVATION
 40
0.0
  9
$THICKNESS
 40
0.0
  9
$LIMCHECK
 70
     0
  9
$CHAMFERA
 40
0.5
  9
$CHAMFERB
 40
0.5
  9
$SKPOLY
 70
     0
  9
$TDCREATE
 40
2454910.5
  9
$TDUPDATE
 40
2457730.682446111
  9
$TDINDWG
 40
0.0000000116
  9
$TDUSRTIMER
 40
0.0000000116
  9
$USRTIMER
 70
     1
  9
$ANGBASE
 50
0.0
  9
$ANGDIR
 70
     0
  9
$PDMODE
 70
     0
  9
$PDSIZE
 40
0.0
  9
$PLINEWID
 40
0.0
  9
$COORDS
 70
     1
  9
$SPLFRAME
 70
     0
  9
$SPLINETYPE
 70
     6
  9
$SPLINESEGS
 70
     8
  9
$ATTDIA
 70
     0
  9
$ATTREQ
 70
     1
  9
$HANDLING
 70
     1
  9
$HANDSEED
  5
31D
  9
$SURFTAB1
 70
     6
  9
$SURFTAB2
 70
     6
  9
$SURFTYPE
 70
     6
  9
$SURFU
 70
     6
  9
$SURFV
 70
     6
  9
$UCSNAME
  2

  9
$UCSORG
 10
0.0
 20
0.0
 30
0.0
  9
$UCSXDIR
 10
1.0
 20
0.0
 30
0.0
  9
$UCSYDIR
 10
0.0
 20
1.0
 30
0.0
  9
$PUCSNAME
  2

  9
$PUCSORG
 10
0.0
 20
0.0
 30
0.0
  9
$PUCSXDIR
 10
1.0
 20
0.0
 30
0.0
  9
$PUCSYDIR
 10
0.0
 20
1.0
 30
0.0
  9
$USERI1
 70
     0
  9
$USERI2
 70
     0
  9
$USERI3
 70
     0
  9
$USERI4
 70
     0
  9
$USERI5
 70
     0
  9
$USERR1
 40
0.0
  9
$USERR2
 40
0.0
  9
$USERR3
 40
0.0
  9
$USERR4
 40
0.0
  9
$USERR5
 40
0.0
  9
$WORLDVIEW
 70
     1
  9
$SHADEDGE
 70
     3
  9
$SHADEDIF
 70
    70
  9
$TILEMODE
 70
     1
  9
$MAXACTVP
 70
    64
  9
$PLIMCHECK
 70
     0
  9
$PEXTMIN
 10
1.000000000000000E+20
 20
1.000000000000000E+20
 30
1.000000000000000E+20
  9
$PEXTMAX
 10
-1.000000000000000E+20
 20
-1.000000000000000E+20
 30
-1.000000000000000E+20
  9
$PLIMMIN
 10
0.0
 20
0.0
  9
$PLIMMAX
 10
12.0
 20
9.0
  9
$UNITMODE
 70
     0
  9
$VISRETAIN
 70
     1
  9
$PLINEGEN
 70
     0
  9
$PSLTSCALE
 70
     1
  0
ENDSEC
  0
SECTION
  2
TABLES
  0
TABLE
  2
VPORT
 70
     1
  0
VPORT
  2
*ACTIVE
 70
     0
 10
0.0
 20
0.0
 11
1.0
 21
1.0
 12
10.42990654205607
 22
4.5
 13
0.0
 23
0.0
 14
0.5
 24
0.5
 15
0.5
 25
0.5
 16
0.0
 26
0.0
 36
1.0
 17
0.0
 27
0.0
 37
0.0
 40
9.0
 41
1.972972972850329
 42
50.0
 43
0.0
 44
0.0
 50
0.0
 51
0.0
 71
     0
 72
   100
 73
     1
 74
     3
 75
     0
 76
     0
 77
     0
 78
     0
  0
ENDTAB
  0
TABLE
  2
LTYPE
 70
     2
  0
LTYPE
  2
CONTINUOUS
 70
     0
  3
Solid line
 72
    65
 73
     0
 40
0.0
  0
LTYPE
  2
CONTINUOUS2
 70
     0
  3
Solid Line
 72
    65
 73
     0
 40
0.0
  0
ENDTAB
  0
TABLE
  2
LAYER
 70
     2
  0
LAYER
  2
0
 70
     0
 62
     7
  6
CONTINUOUS
  0
LAYER
  2
LAYER_1
 70
     0
 62
   150
  6
CONTINUOUS
  0
ENDTAB
  0
TABLE
  2
STYLE
 70
     1
  0
STYLE
  2
STANDARD
 70
     0
 40
0.0
 41
1.0
 50
0.0
 71
     0
 42
0.2
  3
txt
  4

  0
ENDTAB
  0
TABLE
  2
VIEW
 70
     0
  0
ENDTAB
  0
TABLE
  2
UCS
 70
     0
  0
ENDTAB
  0
TABLE
  2
APPID
 70
     1
  0
APPID
  2
ACAD
 70
     0
  0
ENDTAB
  0
TABLE
  2
DIMSTYLE
 70
     1
  0
DIMSTYLE
  2
STANDARD
 70
     0
  3

  4

  5

  6

  7

 40
1.0
 41
0.18
 42
0.0625
 43
0.38
 44
0.18
 45
0.0
 46
0.0
 47
0.0
 48
0.0
140
0.18
141
0.09
142
0.0
143
25.4
144
1.0
145
0.0
146
1.0
147
0.09
 71
     0
 72
     0
 73
     1
 74
     1
 75
     0
 76
     0
 77
     0
 78
     0
170
     0
171
     2
172
     0
173
     0
174
     0
175
     0
176
     0
177
     0
178
     0
  0
ENDTAB
  0
ENDSEC
  0
SECTION
  2
BLOCKS
  0
BLOCK
  8
0
  2
$MODEL_SPACE
 70
     0
 10
0.0
 20
0.0
 30
0.0
  3
$MODEL_SPACE
  1

  0
ENDBLK
  5
21
  8
0
  0
BLOCK
 67
     1
  8
0
  2
$PAPER_SPACE
 70
     0
 10
0.0
 20
0.0
 30
0.0
  3
$PAPER_SPACE
  1

  0
ENDBLK
  5
1D
 67
     1
  8
0
  0
ENDSEC
  0
SECTION
  2
ENTITIES
  0
POLYLINE
  5
41
  8
LAYER_1
 66
     1
 10
0.0
 20
0.0
 30
0.0
 70
     1
  0
VERTEX
  5
7F
  8
LAYER_1
 10
19.70003282034397
 20
-34.34524999999999
 30
0.0
  0
VERTEX
  5
80
  8
LAYER_1
 10
27.22643282034397
 20
-34.34524999999999
 30
0.0
  0
VERTEX
  5
81
  8
LAYER_1
 10
27.22643282034397
 20
-23.01904999999999
 30
0.0
  0
VERTEX
  5
82
  8
LAYER_1
 10
19.70003282034397
 20
-23.01904999999999
 30
0.0
  0
SEQEND
  5
83
  8
LAYER_1
  0
POLYLINE
  5
42
  8
LAYER_1
 66
     1
 10
0.0
 20
0.0
 30
0.0
 70
     1
  0
VERTEX
  5
84
  8
LAYER_1
 10
-27.40016717965603
 20
-34.34524999999999
 30
0.0
  0
VERTEX
  5
85
  8
LAYER_1
 10
-19.87376717965603
 20
-34.34524999999999
 30
0.0
  0
VERTEX
  5
86
  8
LAYER_1
 10
-19.87376717965603
 20
-23.01904999999999
 30
0.0
  0
VERTEX
  5
87
  8
LAYER_1
 10
-27.40016717965603
 20
-23.01904999999999
 30
0.0
  0
SEQEND
  5
88
  8
LAYER_1
  0
POLYLINE
  5
43
  8
LAYER_1
 66
     1
 10
0.0
 20
0.0
 30
0.0
 70
     1
  0
VERTEX
  5
89
  8
LAYER_1
 10
-27.40016717965603
 20
-74.83344999999998
 30
0.0
  0
VERTEX
  5
8A
  8
LAYER_1
 10
-19.87376717965603
 20
-74.83344999999998
 30
0.0
  0
VERTEX
  5
8B
  8
LAYER_1
 10
-19.87376717965603
 20
-63.50724999999997
 30
0.0
  0
VERTEX
  5
8C
  8
LAYER_1
 10
-27.40016717965603
 20
-63.50724999999997
 30
0.0
  0
SEQEND
  5
8D
  8
LAYER_1
  0
POLYLINE
  5
44
  8
LAYER_1
 66
     1
 10
0.0
 20
0.0
 30
0.0
 70
     1
  0
VERTEX
  5
8E
  8
LAYER_1
 10
19.70003282034397
 20
-74.86224999999999
 30
0.0
  0
VERTEX
  5
8F
  8
LAYER_1
 10
27.22643282034397
 20
-74.86224999999999
 30
0.0
  0
VERTEX
  5
90
  8
LAYER_1
 10
27.22643282034397
 20
-63.53604999999999
 30
0.0
  0
VERTEX
  5
91
  8
LAYER_1
 10
19.70003282034397
 20
-63.53604999999999
 30
0.0
  0
SEQEND
  5
92
  8
LAYER_1
  0
POLYLINE
  5
45
  8
LAYER_1
 66
     1
 10
0.0
 20
0.0
 30
0.0
 70
     1
  0
VERTEX
  5
93
  8
LAYER_1
 10
19.70003282034397
 20
-150.57585
 30
0.0
  0
VERTEX
  5
94
  8
LAYER_1
 10
27.22643282034397
 20
-150.57585
 30
0.0
  0
VERTEX
  5
95
  8
LAYER_1
 10
27.22643282034397
 20
-139.24965
 30
0.0
  0
VERTEX
  5
96
  8
LAYER_1
 10
19.70003282034397
 20
-139.24965
 30
0.0
  0
SEQEND
  5
97
  8
LAYER_1
  0
POLYLINE
  5
46
  8
LAYER_1
 66
     1
 10
0.0
 20
0.0
 30
0.0
 70
     1
  0
VERTEX
  5
98
  8
LAYER_1
 10
-27.40016717965603
 20
-150.54815
 30
0.0
  0
VERTEX
  5
99
  8
LAYER_1
 10
-19.87376717965603
 20
-150.54815
 30
0.0
  0
VERTEX
  5
9A
  8
LAYER_1
 10
-19.87376717965603
 20
-139.22195
 30
0.0
  0
VERTEX
  5
9B
  8
LAYER_1
 10
-27.40016717965603
 20
-139.22195
 30
0.0
  0
SEQEND
  5
9C
  8
LAYER_1
  0
POLYLINE
  5
47
  8
LAYER_1
 66
     1
 10
0.0
 20
0.0
 30
0.0
 70
     1
  0
VERTEX
  5
9D
  8
LAYER_1
 10
-19.25306717965603
 20
-131.80235
 30
0.0
  0
VERTEX
  5
9E
  8
LAYER_1
 10
18.86593282034397
 20
-131.80235
 30
0.0
  0
VERTEX
  5
9F
  8
LAYER_1
 10
18.86593282034397
 20
-82.17814999999999
 30
0.0
  0
VERTEX
  5
A0
  8
LAYER_1
 10
-19.25306717965603
 20
-82.17814999999999
 30
0.0
  0
SEQEND
  5
A1
  8
LAYER_1
  0
POLYLINE
  5
48
  8
LAYER_1
 66
     1
 10
0.0
 20
0.0
 30
0.0
 70
     1
  0
VERTEX
  5
A2
  8
LAYER_1
 10
-129.443767179656
 20
-99.86574999999998
 30
0.0
  0
VERTEX
  5
A3
  8
LAYER_1
 10
-84.14696717965603
 20
-99.86574999999998
 30
0.0
  0
VERTEX
  5
A4
  8
LAYER_1
 10
-84.14696717965603
 20
-60.42114999999998
 30
0.0
  0
VERTEX
  5
A5
  8
LAYER_1
 10
-129.443767179656
 20
-60.42114999999998
 30
0.0
  0
SEQEND
  5
A6
  8
LAYER_1
  0
POLYLINE
  5
49
  8
LAYER_1
 66
     1
 10
0.0
 20
0.0
 30
0.0
 70
     1
  0
VERTEX
  5
A7
  8
LAYER_1
 10
84.14703282034397
 20
-99.86574999999998
 30
0.0
  0
VERTEX
  5
A8
  8
LAYER_1
 10
129.443832820344
 20
-99.86574999999998
 30
0.0
  0
VERTEX
  5
A9
  8
LAYER_1
 10
129.443832820344
 20
-60.42114999999998
 30
0.0
  0
VERTEX
  5
AA
  8
LAYER_1
 10
84.14703282034397
 20
-60.42114999999998
 30
0.0
  0
SEQEND
  5
AB
  8
LAYER_1
  0
POLYLINE
  5
4A
  8
LAYER_1
 66
     1
 10
0.0
 20
0.0
 30
0.0
 70
     1
  0
VERTEX
  5
AC
  8
LAYER_1
 10
-84.65336717965603
 20
-109.79035
 30
0.0
  0
VERTEX
  5
AD
  8
LAYER_1
 10
-76.04496717965603
 20
-109.79035
 30
0.0
  0
VERTEX
  5
AE
  8
LAYER_1
 10
-76.04496717965603
 20
-104.44915
 30
0.0
  0
VERTEX
  5
AF
  8
LAYER_1
 10
-84.65336717965603
 20
-104.44915
 30
0.0
  0
SEQEND
  5
B0
  8
LAYER_1
  0
POLYLINE
  5
4B
  8
LAYER_1
 66
     1
 10
0.0
 20
0.0
 30
0.0
 70
     1
  0
VERTEX
  5
B1
  8
LAYER_1
 10
-102.019867179656
 20
-109.79035
 30
0.0
  0
VERTEX
  5
B2
  8
LAYER_1
 10
-93.41146717965603
 20
-109.79035
 30
0.0
  0
VERTEX
  5
B3
  8
LAYER_1
 10
-93.41146717965603
 20
-104.44915
 30
0.0
  0
VERTEX
  5
B4
  8
LAYER_1
 10
-102.019867179656
 20
-104.44915
 30
0.0
  0
SEQEND
  5
B5
  8
LAYER_1
  0
POLYLINE
  5
4C
  8
LAYER_1
 66
     1
 10
0.0
 20
0.0
 30
0.0
 70
     1
  0
VERTEX
  5
B6
  8
LAYER_1
 10
-139.613767179656
 20
-119.39875
 30
0.0
  0
VERTEX
  5
B7
  8
LAYER_1
 10
-131.005367179656
 20
-119.39875
 30
0.0
  0
VERTEX
  5
B8
  8
LAYER_1
 10
-131.005367179656
 20
-114.05755
 30
0.0
  0
VERTEX
  5
B9
  8
LAYER_1
 10
-139.613767179656
 20
-114.05755
 30
0.0
  0
SEQEND
  5
BA
  8
LAYER_1
  0
POLYLINE
  5
4D
  8
LAYER_1
 66
     1
 10
0.0
 20
0.0
 30
0.0
 70
     1
  0
VERTEX
  5
BB
  8
LAYER_1
 10
76.04503282034398
 20
-109.79035
 30
0.0
  0
VERTEX
  5
BC
  8
LAYER_1
 10
84.65343282034397
 20
-109.79035
 30
0.0
  0
VERTEX
  5
BD
  8
LAYER_1
 10
84.65343282034397
 20
-104.44915
 30
0.0
  0
VERTEX
  5
BE
  8
LAYER_1
 10
76.04503282034398
 20
-104.44915
 30
0.0
  0
SEQEND
  5
BF
  8
LAYER_1
  0
POLYLINE
  5
4E
  8
LAYER_1
 66
     1
 10
0.0
 20
0.0
 30
0.0
 70
     1
  0
VERTEX
  5
C0
  8
LAYER_1
 10
93.41153282034396
 20
-109.79035
 30
0.0
  0
VERTEX
  5
C1
  8
LAYER_1
 10
102.019932820344
 20
-109.79035
 30
0.0
  0
VERTEX
  5
C2
  8
LAYER_1
 10
102.019932820344
 20
-104.44915
 30
0.0
  0
VERTEX
  5
C3
  8
LAYER_1
 10
93.41153282034396
 20
-104.44915
 30
0.0
  0
SEQEND
  5
C4
  8
LAYER_1
  0
POLYLINE
  5
4F
  8
LAYER_1
 66
     1
 10
0.0
 20
0.0
 30
0.0
 70
     1
  0
VERTEX
  5
C5
  8
LAYER_1
 10
131.005432820344
 20
-119.39875
 30
0.0
  0
VERTEX
  5
C6
  8
LAYER_1
 10
139.613832820344
 20
-119.39875
 30
0.0
  0
VERTEX
  5
C7
  8
LAYER_1
 10
139.613832820344
 20
-114.05755
 30
0.0
  0
VERTEX
  5
C8
  8
LAYER_1
 10
131.005432820344
 20
-114.05755
 30
0.0
  0
SEQEND
  5
C9
  8
LAYER_1
  0
POLYLINE
  5
50
  8
LAYER_1
 66
     1
 10
0.0
 20
0.0
 30
0.0
 70
     1
  0
VERTEX
  5
CA
  8
LAYER_1
 10
-143.361367179656
 20
-12.91264999999999
 30
0.0
  0
VERTEX
  5
CB
  8
LAYER_1
 10
-131.410967179656
 20
-12.91264999999999
 30
0.0
  0
VERTEX
  5
CC
  8
LAYER_1
 10
-131.410967179656
 20
-5.247849999999971
 30
0.0
  0
VERTEX
  5
CD
  8
LAYER_1
 10
-143.361367179656
 20
-5.247849999999971
 30
0.0
  0
SEQEND
  5
CE
  8
LAYER_1
  0
POLYLINE
  5
51
  8
LAYER_1
 66
     1
 10
0.0
 20
0.0
 30
0.0
 70
     1
  0
VERTEX
  5
CF
  8
LAYER_1
 10
-107.515767179656
 20
-12.91264999999999
 30
0.0
  0
VERTEX
  5
D0
  8
LAYER_1
 10
-95.56536717965604
 20
-12.91264999999999
 30
0.0
  0
VERTEX
  5
D1
  8
LAYER_1
 10
-95.56536717965604
 20
-5.247849999999971
 30
0.0
  0
VERTEX
  5
D2
  8
LAYER_1
 10
-107.515767179656
 20
-5.247849999999971
 30
0.0
  0
SEQEND
  5
D3
  8
LAYER_1
  0
POLYLINE
  5
52
  8
LAYER_1
 66
     1
 10
0.0
 20
0.0
 30
0.0
 70
     1
  0
VERTEX
  5
D4
  8
LAYER_1
 10
-78.14666717965603
 20
-44.08584999999999
 30
0.0
  0
VERTEX
  5
D5
  8
LAYER_1
 10
-69.53826717965603
 20
-44.08584999999999
 30
0.0
  0
VERTEX
  5
D6
  8
LAYER_1
 10
-69.53826717965603
 20
-38.74464999999998
 30
0.0
  0
VERTEX
  5
D7
  8
LAYER_1
 10
-78.14666717965603
 20
-38.74464999999998
 30
0.0
  0
SEQEND
  5
D8
  8
LAYER_1
  0
POLYLINE
  5
53
  8
LAYER_1
 66
     1
 10
0.0
 20
0.0
 30
0.0
 70
     1
  0
VERTEX
  5
D9
  8
LAYER_1
 10
-148.861267179656
 20
-44.08584999999999
 30
0.0
  0
VERTEX
  5
DA
  8
LAYER_1
 10
-140.252867179656
 20
-44.08584999999999
 30
0.0
  0
VERTEX
  5
DB
  8
LAYER_1
 10
-140.252867179656
 20
-38.74464999999998
 30
0.0
  0
VERTEX
  5
DC
  8
LAYER_1
 10
-148.861267179656
 20
-38.74464999999998
 30
0.0
  0
SEQEND
  5
DD
  8
LAYER_1
  0
POLYLINE
  5
54
  8
LAYER_1
 66
     1
 10
0.0
 20
0.0
 30
0.0
 70
     1
  0
VERTEX
  5
DE
  8
LAYER_1
 10
-84.65206717965603
 20
-54.10854999999998
 30
0.0
  0
VERTEX
  5
DF
  8
LAYER_1
 10
-76.04366717965603
 20
-54.10854999999998
 30
0.0
  0
VERTEX
  5
E0
  8
LAYER_1
 10
-76.04366717965603
 20
-48.76734999999999
 30
0.0
  0
VERTEX
  5
E1
  8
LAYER_1
 10
-84.65206717965603
 20
-48.76734999999999
 30
0.0
  0
SEQEND
  5
E2
  8
LAYER_1
  0
POLYLINE
  5
55
  8
LAYER_1
 66
     1
 10
0.0
 20
0.0
 30
0.0
 70
     1
  0
VERTEX
  5
E3
  8
LAYER_1
 10
69.53833282034397
 20
-44.08584999999999
 30
0.0
  0
VERTEX
  5
E4
  8
LAYER_1
 10
78.14673282034397
 20
-44.08584999999999
 30
0.0
  0
VERTEX
  5
E5
  8
LAYER_1
 10
78.14673282034397
 20
-38.74464999999998
 30
0.0
  0
VERTEX
  5
E6
  8
LAYER_1
 10
69.53833282034397
 20
-38.74464999999998
 30
0.0
  0
SEQEND
  5
E7
  8
LAYER_1
  0
POLYLINE
  5
56
  8
LAYER_1
 66
     1
 10
0.0
 20
0.0
 30
0.0
 70
     1
  0
VERTEX
  5
E8
  8
LAYER_1
 10
76.04363282034397
 20
-54.10854999999998
 30
0.0
  0
VERTEX
  5
E9
  8
LAYER_1
 10
84.65203282034398
 20
-54.10854999999998
 30
0.0
  0
VERTEX
  5
EA
  8
LAYER_1
 10
84.65203282034398
 20
-48.76734999999999
 30
0.0
  0
VERTEX
  5
EB
  8
LAYER_1
 10
76.04363282034397
 20
-48.76734999999999
 30
0.0
  0
SEQEND
  5
EC
  8
LAYER_1
  0
POLYLINE
  5
57
  8
LAYER_1
 66
     1
 10
0.0
 20
0.0
 30
0.0
 70
     1
  0
VERTEX
  5
ED
  8
LAYER_1
 10
93.41153282034396
 20
-54.10854999999998
 30
0.0
  0
VERTEX
  5
EE
  8
LAYER_1
 10
102.019932820344
 20
-54.10854999999998
 30
0.0
  0
VERTEX
  5
EF
  8
LAYER_1
 10
102.019932820344
 20
-48.76734999999999
 30
0.0
  0
VERTEX
  5
F0
  8
LAYER_1
 10
93.41153282034396
 20
-48.76734999999999
 30
0.0
  0
SEQEND
  5
F1
  8
LAYER_1
  0
POLYLINE
  5
58
  8
LAYER_1
 66
     1
 10
0.0
 20
0.0
 30
0.0
 70
     1
  0
VERTEX
  5
F2
  8
LAYER_1
 10
93.41153282034396
 20
-44.08584999999999
 30
0.0
  0
VERTEX
  5
F3
  8
LAYER_1
 10
102.019932820344
 20
-44.08584999999999
 30
0.0
  0
VERTEX
  5
F4
  8
LAYER_1
 10
102.019932820344
 20
-38.74464999999998
 30
0.0
  0
VERTEX
  5
F5
  8
LAYER_1
 10
93.41153282034396
 20
-38.74464999999998
 30
0.0
  0
SEQEND
  5
F6
  8
LAYER_1
  0
POLYLINE
  5
59
  8
LAYER_1
 66
     1
 10
0.0
 20
0.0
 30
0.0
 70
     1
  0
VERTEX
  5
F7
  8
LAYER_1
 10
140.252832820344
 20
-44.08584999999999
 30
0.0
  0
VERTEX
  5
F8
  8
LAYER_1
 10
148.861232820344
 20
-44.08584999999999
 30
0.0
  0
VERTEX
  5
F9
  8
LAYER_1
 10
148.861232820344
 20
-38.74464999999998
 30
0.0
  0
VERTEX
  5
FA
  8
LAYER_1
 10
140.252832820344
 20
-38.74464999999998
 30
0.0
  0
SEQEND
  5
FB
  8
LAYER_1
  0
POLYLINE
  5
5A
  8
LAYER_1
 66
     1
 10
0.0
 20
0.0
 30
0.0
 70
     1
  0
VERTEX
  5
FC
  8
LAYER_1
 10
131.431332820344
 20
-12.92474999999999
 30
0.0
  0
VERTEX
  5
FD
  8
LAYER_1
 10
143.330532820344
 20
-12.92474999999999
 30
0.0
  0
VERTEX
  5
FE
  8
LAYER_1
 10
143.330532820344
 20
-5.235749999999996
 30
0.0
  0
VERTEX
  5
FF
  8
LAYER_1
 10
131.431332820344
 20
-5.235749999999996
 30
0.0
  0
SEQEND
  5
100
  8
LAYER_1
  0
POLYLINE
  5
5B
  8
LAYER_1
 66
     1
 10
0.0
 20
0.0
 30
0.0
 70
     1
  0
VERTEX
  5
101
  8
LAYER_1
 10
95.58573282034396
 20
-12.92474999999999
 30
0.0
  0
VERTEX
  5
102
  8
LAYER_1
 10
107.484932820344
 20
-12.92474999999999
 30
0.0
  0
VERTEX
  5
103
  8
LAYER_1
 10
107.484932820344
 20
-5.235749999999996
 30
0.0
  0
VERTEX
  5
104
  8
LAYER_1
 10
95.58573282034396
 20
-5.235749999999996
 30
0.0
  0
SEQEND
  5
105
  8
LAYER_1
  0
POLYLINE
  5
5C
  8
LAYER_1
 66
     1
 10
0.0
 20
0.0
 30
0.0
 70
     1
  0
VERTEX
  5
106
  8
LAYER_1
 10
-102.019867179656
 20
-44.08584999999999
 30
0.0
  0
VERTEX
  5
107
  8
LAYER_1
 10
-93.41146717965603
 20
-44.08584999999999
 30
0.0
  0
VERTEX
  5
108
  8
LAYER_1
 10
-93.41146717965603
 20
-38.74464999999998
 30
0.0
  0
VERTEX
  5
109
  8
LAYER_1
 10
-102.019867179656
 20
-38.74464999999998
 30
0.0
  0
SEQEND
  5
10A
  8
LAYER_1
  0
POLYLINE
  5
5D
  8
LAYER_1
 66
     1
 10
0.0
 20
0.0
 30
0.0
 70
     1
  0
VERTEX
  5
10B
  8
LAYER_1
 10
-102.019867179656
 20
-54.10854999999998
 30
0.0
  0
VERTEX
  5
10C
  8
LAYER_1
 10
-93.41146717965603
 20
-54.10854999999998
 30
0.0
  0
VERTEX
  5
10D
  8
LAYER_1
 10
-93.41146717965603
 20
-48.76734999999999
 30
0.0
  0
VERTEX
  5
10E
  8
LAYER_1
 10
-102.019867179656
 20
-48.76734999999999
 30
0.0
  0
SEQEND
  5
10F
  8
LAYER_1
  0
POLYLINE
  5
5E
  8
LAYER_1
 66
     1
 10
0.0
 20
0.0
 30
0.0
 70
     1
  0
VERTEX
  5
110
  8
LAYER_1
 10
95.82213282034397
 20
133.19825
 30
0.0
  0
VERTEX
  5
111
  8
LAYER_1
 10
105.338532820344
 20
130.10065
 30
0.0
  0
VERTEX
  5
112
  8
LAYER_1
 10
107.038932820344
 20
134.45725
 30
0.0
  0
VERTEX
  5
113
  8
LAYER_1
 10
97.31903282034396
 20
137.61615
 30
0.0
  0
SEQEND
  5
114
  8
LAYER_1
  0
POLYLINE
  5
5F
  8
LAYER_1
 66
     1
 10
0.0
 20
0.0
 30
0.0
 70
     1
  0
VERTEX
  5
115
  8
LAYER_1
 10
112.212132820344
 20
108.32985
 30
0.0
  0
VERTEX
  5
116
  8
LAYER_1
 10
112.219232820344
 20
102.37375
 30
0.0
  0
VERTEX
  5
117
  8
LAYER_1
 10
124.305232820344
 20
102.38835
 30
0.0
  0
VERTEX
  5
118
  8
LAYER_1
 10
124.298032820344
 20
108.34445
 30
0.0
  0
SEQEND
  5
119
  8
LAYER_1
  0
POLYLINE
  5
60
  8
LAYER_1
 66
     1
 10
0.0
 20
0.0
 30
0.0
 70
     1
  0
VERTEX
  5
11A
  8
LAYER_1
 10
77.63883282034396
 20
119.31335
 30
0.0
  0
VERTEX
  5
11B
  8
LAYER_1
 10
81.85893282034397
 20
118.03385
 30
0.0
  0
VERTEX
  5
11C
  8
LAYER_1
 10
84.60643282034397
 20
126.81745
 30
0.0
  0
VERTEX
  5
11D
  8
LAYER_1
 10
80.43753282034398
 20
128.26075
 30
0.0
  0
SEQEND
  5
11E
  8
LAYER_1
  0
POLYLINE
  5
61
  8
LAYER_1
 66
     1
 10
0.0
 20
0.0
 30
0.0
 70
     1
  0
VERTEX
  5
11F
  8
LAYER_1
 10
37.27603282034397
 20
133.47065
 30
0.0
  0
VERTEX
  5
120
  8
LAYER_1
 10
39.60003282034397
 20
140.93465
 30
0.0
  0
VERTEX
  5
121
  8
LAYER_1
 10
43.36803282034397
 20
139.77065
 30
0.0
  0
VERTEX
  5
122
  8
LAYER_1
 10
41.05603282034397
 20
132.29865
 30
0.0
  0
SEQEND
  5
123
  8
LAYER_1
  0
POLYLINE
  5
62
  8
LAYER_1
 66
     1
 10
0.0
 20
0.0
 30
0.0
 70
     1
  0
VERTEX
  5
124
  8
LAYER_1
 10
46.15203282034397
 20
83.90265
 30
0.0
  0
VERTEX
  5
125
  8
LAYER_1
 10
59.90743282034397
 20
86.37075000000004
 30
0.0
  0
VERTEX
  5
126
  8
LAYER_1
 10
64.28203282034397
 20
85.80835000000002
 30
0.0
  0
VERTEX
  5
127
  8
LAYER_1
 10
72.12333282034398
 20
106.55875
 30
0.0
  0
VERTEX
  5
128
  8
LAYER_1
 10
71.51183282034397
 20
115.68965
 30
0.0
  0
VERTEX
  5
129
  8
LAYER_1
 10
63.17203282034397
 20
122.83865
 30
0.0
  0
VERTEX
  5
12A
  8
LAYER_1
 10
53.97203282034397
 20
120.39065
 30
0.0
  0
VERTEX
  5
12B
  8
LAYER_1
 10
40.10803282034397
 20
91.75465000000003
 30
0.0
  0
SEQEND
  5
12C
  8
LAYER_1
  0
POLYLINE
  5
63
  8
LAYER_1
 66
     1
 10
0.0
 20
0.0
 30
0.0
 70
     1
  0
VERTEX
  5
12D
  8
LAYER_1
 10
31.24003282034397
 20
73.62665000000004
 30
0.0
  0
VERTEX
  5
12E
  8
LAYER_1
 10
33.56403282034397
 20
81.09465
 30
0.0
  0
VERTEX
  5
12F
  8
LAYER_1
 10
37.33603282034397
 20
79.92665
 30
0.0
  0
VERTEX
  5
130
  8
LAYER_1
 10
35.02403282034397
 20
72.45465000000002
 30
0.0
  0
SEQEND
  5
131
  8
LAYER_1
  0
POLYLINE
  5
64
  8
LAYER_1
 66
     1
 10
0.0
 20
0.0
 30
0.0
 70
     1
  0
VERTEX
  5
132
  8
LAYER_1
 10
33.84133282034397
 20
35.45695000000001
 30
0.0
  0
VERTEX
  5
133
  8
LAYER_1
 10
31.48333282034397
 20
42.91435000000001
 30
0.0
  0
VERTEX
  5
134
  8
LAYER_1
 10
35.26193282034397
 20
44.10155
 30
0.0
  0
VERTEX
  5
135
  8
LAYER_1
 10
37.60593282034397
 20
36.64015000000001
 30
0.0
  0
SEQEND
  5
136
  8
LAYER_1
  0
POLYLINE
  5
65
  8
LAYER_1
 66
     1
 10
0.0
 20
0.0
 30
0.0
 70
     1
  0
VERTEX
  5
137
  8
LAYER_1
 10
-41.05596717965603
 20
132.29865
 30
0.0
  0
VERTEX
  5
138
  8
LAYER_1
 10
-37.27596717965603
 20
133.47065
 30
0.0
  0
VERTEX
  5
139
  8
LAYER_1
 10
-39.59996717965603
 20
140.93465
 30
0.0
  0
VERTEX
  5
13A
  8
LAYER_1
 10
-43.36796717965603
 20
139.77065
 30
0.0
  0
SEQEND
  5
13B
  8
LAYER_1
  0
POLYLINE
  5
66
  8
LAYER_1
 66
     1
 10
0.0
 20
0.0
 30
0.0
 70
     1
  0
VERTEX
  5
13C
  8
LAYER_1
 10
-35.02396717965603
 20
72.45465000000002
 30
0.0
  0
VERTEX
  5
13D
  8
LAYER_1
 10
-31.23996717965603
 20
73.62665000000004
 30
0.0
  0
VERTEX
  5
13E
  8
LAYER_1
 10
-33.56396717965603
 20
81.09465
 30
0.0
  0
VERTEX
  5
13F
  8
LAYER_1
 10
-37.33596717965603
 20
79.92665
 30
0.0
  0
SEQEND
  5
140
  8
LAYER_1
  0
POLYLINE
  5
67
  8
LAYER_1
 66
     1
 10
0.0
 20
0.0
 30
0.0
 70
     1
  0
VERTEX
  5
141
  8
LAYER_1
 10
40.20353282034397
 20
-24.35664999999997
 30
0.0
  0
VERTEX
  5
142
  8
LAYER_1
 10
37.84563282034397
 20
-16.90134999999998
 30
0.0
  0
VERTEX
  5
143
  8
LAYER_1
 10
41.62223282034397
 20
-15.71414999999999
 30
0.0
  0
VERTEX
  5
144
  8
LAYER_1
 10
43.96623282034397
 20
-23.17354999999998
 30
0.0
  0
SEQEND
  5
145
  8
LAYER_1
  0
POLYLINE
  5
68
  8
LAYER_1
 66
     1
 10
0.0
 20
0.0
 30
0.0
 70
     1
  0
VERTEX
  5
146
  8
LAYER_1
 10
-81.85896717965603
 20
118.03385
 30
0.0
  0
VERTEX
  5
147
  8
LAYER_1
 10
-84.60636717965603
 20
126.81745
 30
0.0
  0
VERTEX
  5
148
  8
LAYER_1
 10
-80.43746717965602
 20
128.26075
 30
0.0
  0
VERTEX
  5
149
  8
LAYER_1
 10
-77.63876717965603
 20
119.31335
 30
0.0
  0
SEQEND
  5
14A
  8
LAYER_1
  0
POLYLINE
  5
69
  8
LAYER_1
 66
     1
 10
0.0
 20
0.0
 30
0.0
 70
     1
  0
VERTEX
  5
14B
  8
LAYER_1
 10
-64.28196717965604
 20
85.80835000000002
 30
0.0
  0
VERTEX
  5
14C
  8
LAYER_1
 10
-72.12326717965603
 20
106.55875
 30
0.0
  0
VERTEX
  5
14D
  8
LAYER_1
 10
-71.51176717965603
 20
115.68965
 30
0.0
  0
VERTEX
  5
14E
  8
LAYER_1
 10
-63.17196717965603
 20
122.83865
 30
0.0
  0
VERTEX
  5
14F
  8
LAYER_1
 10
-53.97196717965603
 20
120.39065
 30
0.0
  0
VERTEX
  5
150
  8
LAYER_1
 10
-40.10796717965603
 20
91.75465000000003
 30
0.0
  0
VERTEX
  5
151
  8
LAYER_1
 10
-46.15196717965603
 20
83.90265
 30
0.0
  0
VERTEX
  5
152
  8
LAYER_1
 10
-59.90736717965603
 20
86.37075000000004
 30
0.0
  0
SEQEND
  5
153
  8
LAYER_1
  0
POLYLINE
  5
6A
  8
LAYER_1
 66
     1
 10
0.0
 20
0.0
 30
0.0
 70
     1
  0
VERTEX
  5
154
  8
LAYER_1
 10
-37.60596717965603
 20
36.64015000000001
 30
0.0
  0
VERTEX
  5
155
  8
LAYER_1
 10
-33.84126717965603
 20
35.45695000000001
 30
0.0
  0
VERTEX
  5
156
  8
LAYER_1
 10
-31.48336717965603
 20
42.91435000000001
 30
0.0
  0
VERTEX
  5
157
  8
LAYER_1
 10
-35.26196717965603
 20
44.10155
 30
0.0
  0
SEQEND
  5
158
  8
LAYER_1
  0
POLYLINE
  5
6B
  8
LAYER_1
 66
     1
 10
0.0
 20
0.0
 30
0.0
 70
     1
  0
VERTEX
  5
159
  8
LAYER_1
 10
-105.338467179656
 20
130.10065
 30
0.0
  0
VERTEX
  5
15A
  8
LAYER_1
 10
-107.038967179656
 20
134.45725
 30
0.0
  0
VERTEX
  5
15B
  8
LAYER_1
 10
-97.31906717965603
 20
137.61615
 30
0.0
  0
VERTEX
  5
15C
  8
LAYER_1
 10
-95.82216717965603
 20
133.19825
 30
0.0
  0
SEQEND
  5
15D
  8
LAYER_1
  0
POLYLINE
  5
6C
  8
LAYER_1
 66
     1
 10
0.0
 20
0.0
 30
0.0
 70
     1
  0
VERTEX
  5
15E
  8
LAYER_1
 10
-27.40006717965603
 20
0.9872500000000173
 30
0.0
  0
VERTEX
  5
15F
  8
LAYER_1
 10
-19.70006717965603
 20
0.9872500000000173
 30
0.0
  0
VERTEX
  5
160
  8
LAYER_1
 10
-19.70006717965603
 20
-6.241149999999976
 30
0.0
  0
VERTEX
  5
161
  8
LAYER_1
 10
19.69998282034397
 20
-6.241149999999976
 30
0.0
  0
VERTEX
  5
162
  8
LAYER_1
 10
19.70003282034397
 20
0.9872500000000173
 30
0.0
  0
VERTEX
  5
163
  8
LAYER_1
 10
27.40003282034397
 20
0.9872500000000173
 30
0.0
  0
VERTEX
  5
164
  8
LAYER_1
 10
27.40003282034397
 20
12.78725000000003
 30
0.0
  0
VERTEX
  5
165
  8
LAYER_1
 10
19.69993282034397
 20
12.78725000000003
 30
0.0
  0
VERTEX
  5
166
  8
LAYER_1
 10
19.69829238243727
 20
36.48030142166134
 30
0.0
  0
VERTEX
  5
167
  8
LAYER_1
 10
27.39556233614405
 20
36.48030142166134
 30
0.0
  0
VERTEX
  5
168
  8
LAYER_1
 10
27.40003282034397
 20
48.68025000000003
 30
0.0
  0
VERTEX
  5
169
  8
LAYER_1
 10
19.69973282034397
 20
48.68025000000003
 30
0.0
  0
VERTEX
  5
16A
  8
LAYER_1
 10
19.69401915339598
 20
57.9735116272354
 30
0.0
  0
VERTEX
  5
16B
  8
LAYER_1
 10
27.40843224731148
 20
57.97481279157725
 30
0.0
  0
VERTEX
  5
16C
  8
LAYER_1
 10
27.40003282034397
 20
67.98025000000001
 30
0.0
  0
VERTEX
  5
16D
  8
LAYER_1
 10
19.70003282034397
 20
67.98025000000001
 30
0.0
  0
VERTEX
  5
16E
  8
LAYER_1
 10
19.70003282034397
 20
95.21065000000004
 30
0.0
  0
VERTEX
  5
16F
  8
LAYER_1
 10
-19.69996717965603
 20
95.21065000000004
 30
0.0
  0
VERTEX
  5
170
  8
LAYER_1
 10
-19.70006717965603
 20
67.98025000000001
 30
0.0
  0
VERTEX
  5
171
  8
LAYER_1
 10
-27.40006717965603
 20
67.98025000000001
 30
0.0
  0
VERTEX
  5
172
  8
LAYER_1
 10
-27.3991657695659
 20
57.9811216450836
 30
0.0
  0
VERTEX
  5
173
  8
LAYER_1
 10
-19.70006717965603
 20
57.98025000000002
 30
0.0
  0
VERTEX
  5
174
  8
LAYER_1
 10
-19.69986717965603
 20
48.68025000000003
 30
0.0
  0
VERTEX
  5
175
  8
LAYER_1
 10
-27.40026717965603
 20
48.68025000000003
 30
0.0
  0
VERTEX
  5
176
  8
LAYER_1
 10
-27.39590759345931
 20
36.4736414211368
 30
0.0
  0
VERTEX
  5
177
  8
LAYER_1
 10
-19.69986717965603
 20
36.48025000000003
 30
0.0
  0
VERTEX
  5
178
  8
LAYER_1
 10
-19.69996717965603
 20
12.78725000000003
 30
0.0
  0
VERTEX
  5
179
  8
LAYER_1
 10
-27.40006717965603
 20
12.78725000000003
 30
0.0
  0
SEQEND
  5
17A
  8
LAYER_1
  0
POLYLINE
  5
6D
  8
LAYER_1
 66
     1
 10
0.0
 20
0.0
 30
0.0
 70
     1
  0
VERTEX
  5
17B
  8
LAYER_1
 10
-124.305167179656
 20
102.38835
 30
0.0
  0
VERTEX
  5
17C
  8
LAYER_1
 10
-124.298067179656
 20
108.34445
 30
0.0
  0
VERTEX
  5
17D
  8
LAYER_1
 10
-112.212067179656
 20
108.32985
 30
0.0
  0
VERTEX
  5
17E
  8
LAYER_1
 10
-112.219267179656
 20
102.37375
 30
0.0
  0
SEQEND
  5
17F
  8
LAYER_1
  0
POLYLINE
  5
6E
  8
LAYER_1
 66
     1
 10
0.0
 20
0.0
 30
0.0
 70
     1
  0
VERTEX
  5
180
  8
LAYER_1
 10
-43.96616717965603
 20
-23.17354999999998
 30
0.0
  0
VERTEX
  5
181
  8
LAYER_1
 10
-40.20356717965603
 20
-24.35664999999997
 30
0.0
  0
VERTEX
  5
182
  8
LAYER_1
 10
-37.84556717965603
 20
-16.90134999999998
 30
0.0
  0
VERTEX
  5
183
  8
LAYER_1
 10
-41.62226717965603
 20
-15.71414999999999
 30
0.0
  0
SEQEND
  5
184
  8
LAYER_1
  0
POLYLINE
  5
6F
  8
LAYER_1
 66
     1
 10
0.0
 20
0.0
 30
0.0
 70
     1
  0
VERTEX
  5
185
  8
LAYER_1
 10
-85.49949573102305
 20
32.57399983460684
 30
0.0
 42
0.4142135623730951
  0
VERTEX
  5
186
  8
LAYER_1
 10
-103.3461756799696
 20
14.72731988566029
 30
0.0
 42
0.4142135623730951
  0
VERTEX
  5
187
  8
LAYER_1
 10
-85.49949573102305
 20
-3.11936006328626
 30
0.0
 42
0.4142135623730951
  0
VERTEX
  5
188
  8
LAYER_1
 10
-67.6528157820765
 20
14.72731988566029
 30
0.0
 42
0.4142135623730951
  0
SEQEND
  5
189
  8
LAYER_1
  0
POLYLINE
  5
70
  8
LAYER_1
 66
     1
 10
0.0
 20
0.0
 30
0.0
 70
     1
  0
VERTEX
  5
18A
  8
LAYER_1
 10
-77.55714378974261
 20
83.9128703737909
 30
0.0
 42
0.9984304360827544
  0
VERTEX
  5
18B
  8
LAYER_1
 10
-77.47137873356179
 20
65.71309491042403
 30
0.0
 42
0.9984304360827836
  0
VERTEX
  5
18C
  8
LAYER_1
 10
-77.49996717965601
 20
83.91305
 30
0.0
 42
0.0007853983244735
  0
VERTEX
  5
18D
  8
LAYER_1
 10
-77.52855562577778
 20
83.91300509333695
 30
0.0
 42
0.0007853983255223
  0
SEQEND
  5
18E
  8
LAYER_1
  0
POLYLINE
  5
71
  8
LAYER_1
 66
     1
 10
0.0
 20
0.0
 30
0.0
 70
     1
  0
VERTEX
  5
18F
  8
LAYER_1
 10
-27.4
 20
138.585
 30
0.0
  0
VERTEX
  5
190
  8
LAYER_1
 10
-19.7
 20
138.585
 30
0.0
  0
VERTEX
  5
191
  8
LAYER_1
 10
-19.7
 20
150.785
 30
0.0
  0
VERTEX
  5
192
  8
LAYER_1
 10
-27.4
 20
150.785
 30
0.0
  0
SEQEND
  5
193
  8
LAYER_1
  0
POLYLINE
  5
72
  8
LAYER_1
 66
     1
 10
0.0
 20
0.0
 30
0.0
 70
     1
  0
VERTEX
  5
194
  8
LAYER_1
 10
19.7
 20
138.597
 30
0.0
  0
VERTEX
  5
195
  8
LAYER_1
 10
27.4
 20
138.597
 30
0.0
  0
VERTEX
  5
196
  8
LAYER_1
 10
27.4
 20
150.797
 30
0.0
  0
VERTEX
  5
197
  8
LAYER_1
 10
19.7
 20
150.797
 30
0.0
  0
SEQEND
  5
198
  8
LAYER_1
  0
POLYLINE
  5
73
  8
LAYER_1
 66
     1
 10
0.0
 20
0.0
 30
0.0
 70
     1
  0
VERTEX
  5
199
  8
LAYER_1
 10
-27.4
 20
103.63
 30
0.0
  0
VERTEX
  5
19A
  8
LAYER_1
 10
-19.7
 20
103.63
 30
0.0
  0
VERTEX
  5
19B
  8
LAYER_1
 10
-19.7
 20
115.83
 30
0.0
  0
VERTEX
  5
19C
  8
LAYER_1
 10
-27.4
 20
115.83
 30
0.0
  0
SEQEND
  5
19D
  8
LAYER_1
  0
POLYLINE
  5
74
  8
LAYER_1
 66
     1
 10
0.0
 20
0.0
 30
0.0
 70
     1
  0
VERTEX
  5
19E
  8
LAYER_1
 10
19.7
 20
103.63
 30
0.0
  0
VERTEX
  5
19F
  8
LAYER_1
 10
27.4
 20
103.63
 30
0.0
  0
VERTEX
  5
1A0
  8
LAYER_1
 10
27.4
 20
115.83
 30
0.0
  0
VERTEX
  5
1A1
  8
LAYER_1
 10
19.7
 20
115.83
 30
0.0
  0
SEQEND
  5
1A2
  8
LAYER_1
  0
POLYLINE
  5
75
  8
LAYER_1
 66
     1
 10
0.0
 20
0.0
 30
0.0
 70
     1
  0
VERTEX
  5
1A3
  8
LAYER_1
 10
77.44285621025739
 20
83.9128703737909
 30
0.0
 42
0.9984304360827544
  0
VERTEX
  5
1A4
  8
LAYER_1
 10
77.52862126643821
 20
65.71309491042403
 30
0.0
 42
0.9984304360827836
  0
VERTEX
  5
1A5
  8
LAYER_1
 10
77.50003282034399
 20
83.91305
 30
0.0
 42
0.0007853983244735
  0
VERTEX
  5
1A6
  8
LAYER_1
 10
77.47144437422222
 20
83.91300509333695
 30
0.0
 42
0.0007853983255223
  0
SEQEND
  5
1A7
  8
LAYER_1
  0
POLYLINE
  5
76
  8
LAYER_1
 66
     1
 10
0.0
 20
0.0
 30
0.0
 70
     1
  0
VERTEX
  5
1A8
  8
LAYER_1
 10
143.5002825975545
 20
109.3543902370058
 30
0.0
 42
0.997768073926361
  0
VERTEX
  5
1A9
  8
LAYER_1
 10
143.5539081102017
 20
101.3545899419983
 30
0.0
 42
0.9977680739280742
  0
VERTEX
  5
1AA
  8
LAYER_1
 10
143.536032820344
 20
109.3545499999999
 30
0.0
 42
0.0011172098009018
  0
VERTEX
  5
1AB
  8
LAYER_1
 10
143.5181575304533
 20
109.354510059052
 30
0.0
 42
0.0011172098021054
  0
SEQEND
  5
1AC
  8
LAYER_1
  0
POLYLINE
  5
77
  8
LAYER_1
 66
     1
 10
0.0
 20
0.0
 30
0.0
 70
     1
  0
VERTEX
  5
1AD
  8
LAYER_1
 10
-143.5718174024455
 20
109.3543902370058
 30
0.0
 42
0.997768073926361
  0
VERTEX
  5
1AE
  8
LAYER_1
 10
-143.5181918897983
 20
101.3545899419983
 30
0.0
 42
0.9977680739280742
  0
VERTEX
  5
1AF
  8
LAYER_1
 10
-143.536067179656
 20
109.3545499999999
 30
0.0
 42
0.0011172098009018
  0
VERTEX
  5
1B0
  8
LAYER_1
 10
-143.5539424695467
 20
109.354510059052
 30
0.0
 42
0.001117209802084
  0
SEQEND
  5
1B1
  8
LAYER_1
  0
POLYLINE
  5
78
  8
LAYER_1
 66
     1
 10
0.0
 20
0.0
 30
0.0
 70
     1
  0
VERTEX
  5
1B2
  8
LAYER_1
 10
-102.560067179656
 20
-131.98175
 30
0.0
  0
VERTEX
  5
1B3
  8
LAYER_1
 10
-102.560067179656
 20
-127.48475
 30
0.0
  0
VERTEX
  5
1B4
  8
LAYER_1
 10
-104.161967179656
 20
-124.95915
 30
0.0
  0
VERTEX
  5
1B5
  8
LAYER_1
 10
-90.71046717965604
 20
-124.95965
 30
0.0
  0
VERTEX
  5
1B6
  8
LAYER_1
 10
-92.58646717965603
 20
-127.48475
 30
0.0
  0
VERTEX
  5
1B7
  8
LAYER_1
 10
-92.58646717965603
 20
-131.98175
 30
0.0
  0
VERTEX
  5
1B8
  8
LAYER_1
 10
-77.15226717965604
 20
-131.98255
 30
0.0
  0
VERTEX
  5
1B9
  8
LAYER_1
 10
-77.15226717965604
 20
-127.48475
 30
0.0
  0
VERTEX
  5
1BA
  8
LAYER_1
 10
-78.77076717965603
 20
-124.95915
 30
0.0
  0
VERTEX
  5
1BB
  8
LAYER_1
 10
-65.31946717965603
 20
-124.95955
 30
0.0
  0
VERTEX
  5
1BC
  8
LAYER_1
 10
-67.19556717965602
 20
-127.48475
 30
0.0
  0
VERTEX
  5
1BD
  8
LAYER_1
 10
-67.19556717965602
 20
-131.98255
 30
0.0
  0
VERTEX
  5
1BE
  8
LAYER_1
 10
-48.63896717965603
 20
-131.98255
 30
0.0
  0
VERTEX
  5
1BF
  8
LAYER_1
 10
-48.63896717965603
 20
-157.5797
 30
0.0
  0
VERTEX
  5
1C0
  8
LAYER_1
 10
-28.67166717965603
 20
-157.57385
 30
0.0
  0
VERTEX
  5
1C1
  8
LAYER_1
 10
-28.67166717965603
 20
-161.73595
 30
0.0
  0
VERTEX
  5
1C2
  8
LAYER_1
 10
-30.51786717965603
 20
-165.02265
 30
0.0
  0
VERTEX
  5
1C3
  8
LAYER_1
 10
-17.09196717965603
 20
-165.02265
 30
0.0
  0
VERTEX
  5
1C4
  8
LAYER_1
 10
-18.90846717965603
 20
-161.73595
 30
0.0
  0
VERTEX
  5
1C5
  8
LAYER_1
 10
-18.89826717965603
 20
-157.57395
 30
0.0
  0
VERTEX
  5
1C6
  8
LAYER_1
 10
18.42763282034397
 20
-157.57785
 30
0.0
  0
VERTEX
  5
1C7
  8
LAYER_1
 10
18.42763282034397
 20
-161.73595
 30
0.0
  0
VERTEX
  5
1C8
  8
LAYER_1
 10
16.58143282034397
 20
-165.02265
 30
0.0
  0
VERTEX
  5
1C9
  8
LAYER_1
 10
30.00713282034397
 20
-165.02265
 30
0.0
  0
VERTEX
  5
1CA
  8
LAYER_1
 10
28.19073282034397
 20
-161.73595
 30
0.0
  0
VERTEX
  5
1CB
  8
LAYER_1
 10
28.19073282034397
 20
-157.57775
 30
0.0
  0
VERTEX
  5
1CC
  8
LAYER_1
 10
48.18323282034397
 20
-157.58175
 30
0.0
  0
VERTEX
  5
1CD
  8
LAYER_1
 10
48.18323282034397
 20
-131.98255
 30
0.0
  0
VERTEX
  5
1CE
  8
LAYER_1
 10
67.19563282034397
 20
-131.98255
 30
0.0
  0
VERTEX
  5
1CF
  8
LAYER_1
 10
67.19563282034397
 20
-127.48475
 30
0.0
  0
VERTEX
  5
1D0
  8
LAYER_1
 10
65.31953282034397
 20
-124.95955
 30
0.0
  0
VERTEX
  5
1D1
  8
LAYER_1
 10
78.77103282034398
 20
-124.95915
 30
0.0
  0
VERTEX
  5
1D2
  8
LAYER_1
 10
77.15263282034397
 20
-127.42255
 30
0.0
  0
VERTEX
  5
1D3
  8
LAYER_1
 10
77.15263282034397
 20
-131.98255
 30
0.0
  0
VERTEX
  5
1D4
  8
LAYER_1
 10
92.58963282034397
 20
-131.98175
 30
0.0
  0
VERTEX
  5
1D5
  8
LAYER_1
 10
92.58808282034397
 20
-127.48475
 30
0.0
  0
VERTEX
  5
1D6
  8
LAYER_1
 10
90.71043282034397
 20
-124.95955
 30
0.0
  0
VERTEX
  5
1D7
  8
LAYER_1
 10
104.162032820344
 20
-124.95915
 30
0.0
  0
VERTEX
  5
1D8
  8
LAYER_1
 10
102.545132820344
 20
-127.49435
 30
0.0
  0
VERTEX
  5
1D9
  8
LAYER_1
 10
102.545132820344
 20
-131.98255
 30
0.0
  0
VERTEX
  5
1DA
  8
LAYER_1
 10
145.097332820344
 20
-131.98255
 30
0.0
  0
VERTEX
  5
1DB
  8
LAYER_1
 10
154.386432820344
 20
-77.31254999999999
 30
0.0
  0
VERTEX
  5
1DC
  8
LAYER_1
 10
154.307332820344
 20
1.174950000000024
 30
0.0
  0
VERTEX
  5
1DD
  8
LAYER_1
 10
117.358232820344
 20
1.174950000000024
 30
0.0
  0
VERTEX
  5
1DE
  8
LAYER_1
 10
117.358232820344
 20
10.28305
 30
0.0
  0
VERTEX
  5
1DF
  8
LAYER_1
 10
117.0337001924001
 20
10.67377641692418
 30
0.0
  0
VERTEX
  5
1E0
  8
LAYER_1
 10
116.7104962405143
 20
11.07611444773541
 30
0.0
  0
VERTEX
  5
1E1
  8
LAYER_1
 10
116.3892041379651
 20
11.48947156820836
 30
0.0
  0
VERTEX
  5
1E2
  8
LAYER_1
 10
116.070407058031
 20
11.91325525411767
 30
0.0
  0
VERTEX
  5
1E3
  8
LAYER_1
 10
115.7546881739904
 20
12.34687298123799
 30
0.0
  0
VERTEX
  5
1E4
  8
LAYER_1
 10
115.442630659122
 20
12.78973222534399
 30
0.0
  0
VERTEX
  5
1E5
  8
LAYER_1
 10
115.134817686704
 20
13.24124046221031
 30
0.0
  0
VERTEX
  5
1E6
  8
LAYER_1
 10
114.8318324300151
 20
13.70080516761161
 30
0.0
  0
VERTEX
  5
1E7
  8
LAYER_1
 10
114.5342580623337
 20
14.16783381732255
 30
0.0
  0
VERTEX
  5
1E8
  8
LAYER_1
 10
114.2426777569384
 20
14.64173388711777
 30
0.0
  0
VERTEX
  5
1E9
  8
LAYER_1
 10
113.9576746871075
 20
15.12191285277193
 30
0.0
  0
VERTEX
  5
1EA
  8
LAYER_1
 10
113.6798320261197
 20
15.60777819005969
 30
0.0
  0
VERTEX
  5
1EB
  8
LAYER_1
 10
113.4097329472534
 20
16.09873737475569
 30
0.0
  0
VERTEX
  5
1EC
  8
LAYER_1
 10
113.147960623787
 20
16.59419788263459
 30
0.0
  0
VERTEX
  5
1ED
  8
LAYER_1
 10
112.8950982289992
 20
17.09356718947105
 30
0.0
  0
VERTEX
  5
1EE
  8
LAYER_1
 10
112.6517289361683
 20
17.59625277103972
 30
0.0
  0
VERTEX
  5
1EF
  8
LAYER_1
 10
112.4184359185729
 20
18.10166210311525
 30
0.0
  0
VERTEX
  5
1F0
  8
LAYER_1
 10
112.1958023494914
 20
18.60920266147229
 30
0.0
  0
VERTEX
  5
1F1
  8
LAYER_1
 10
111.9844114022024
 20
19.1182819218855
 30
0.0
  0
VERTEX
  5
1F2
  8
LAYER_1
 10
111.7848462499843
 20
19.62830736012954
 30
0.0
  0
VERTEX
  5
1F3
  8
LAYER_1
 10
111.5976900661156
 20
20.13868645197905
 30
0.0
  0
VERTEX
  5
1F4
  8
LAYER_1
 10
111.4235260238749
 20
20.6488266732087
 30
0.0
  0
VERTEX
  5
1F5
  8
LAYER_1
 10
111.2629372965405
 20
21.15813549959313
 30
0.0
  0
VERTEX
  5
1F6
  8
LAYER_1
 10
111.1165070573911
 20
21.666020406907
 30
0.0
  0
VERTEX
  5
1F7
  8
LAYER_1
 10
110.9848184797051
 20
22.17188887092496
 30
0.0
  0
VERTEX
  5
1F8
  8
LAYER_1
 10
110.868454736761
 20
22.67514836742167
 30
0.0
  0
VERTEX
  5
1F9
  8
LAYER_1
 10
110.7679990018372
 20
23.17520637217177
 30
0.0
  0
VERTEX
  5
1FA
  8
LAYER_1
 10
110.6840344482123
 20
23.67147036094993
 30
0.0
  0
VERTEX
  5
1FB
  8
LAYER_1
 10
110.6171442491647
 20
24.16334780953079
 30
0.0
  0
VERTEX
  5
1FC
  8
LAYER_1
 10
110.567911577973
 20
24.65024619368902
 30
0.0
  0
VERTEX
  5
1FD
  8
LAYER_1
 10
110.5369196079157
 20
25.13157298919926
 30
0.0
  0
VERTEX
  5
1FE
  8
LAYER_1
 10
110.5247515122712
 20
25.60673567183616
 30
0.0
  0
VERTEX
  5
1FF
  8
LAYER_1
 10
110.5301208168778
 20
26.09242139349822
 30
0.0
  0
VERTEX
  5
200
  8
LAYER_1
 10
110.5513206355793
 20
26.5818567603382
 30
0.0
  0
VERTEX
  5
201
  8
LAYER_1
 10
110.5881110346174
 20
27.07471533026314
 30
0.0
  0
VERTEX
  5
202
  8
LAYER_1
 10
110.6402520802343
 20
27.57067066118005
 30
0.0
  0
VERTEX
  5
203
  8
LAYER_1
 10
110.7075038386717
 20
28.06939631099598
 30
0.0
  0
VERTEX
  5
204
  8
LAYER_1
 10
110.7896263761717
 20
28.57056583761793
 30
0.0
  0
VERTEX
  5
205
  8
LAYER_1
 10
110.8863797589762
 20
29.07385279895296
 30
0.0
  0
VERTEX
  5
206
  8
LAYER_1
 10
110.9975240533271
 20
29.57893075290808
 30
0.0
  0
VERTEX
  5
207
  8
LAYER_1
 10
111.1228193254664
 20
30.08547325739033
 30
0.0
  0
VERTEX
  5
208
  8
LAYER_1
 10
111.262025641636
 20
30.59315387030671
 30
0.0
  0
VERTEX
  5
209
  8
LAYER_1
 10
111.4149030680779
 20
31.10164614956427
 30
0.0
  0
VERTEX
  5
20A
  8
LAYER_1
 10
111.581211671034
 20
31.61062365307005
 30
0.0
  0
VERTEX
  5
20B
  8
LAYER_1
 10
111.7607115167462
 20
32.11975993873105
 30
0.0
  0
VERTEX
  5
20C
  8
LAYER_1
 10
111.9531626714564
 20
32.62872856445432
 30
0.0
  0
VERTEX
  5
20D
  8
LAYER_1
 10
112.1583252014067
 20
33.13720308814688
 30
0.0
  0
VERTEX
  5
20E
  8
LAYER_1
 10
112.375959172839
 20
33.64485706771574
 30
0.0
  0
VERTEX
  5
20F
  8
LAYER_1
 10
112.6058246519952
 20
34.15136406106796
 30
0.0
  0
VERTEX
  5
210
  8
LAYER_1
 10
112.8476817051172
 20
34.65639762611055
 30
0.0
  0
VERTEX
  5
211
  8
LAYER_1
 10
113.101290398447
 20
35.15963132075053
 30
0.0
  0
VERTEX
  5
212
  8
LAYER_1
 10
113.3664107982265
 20
35.66073870289496
 30
0.0
  0
VERTEX
  5
213
  8
LAYER_1
 10
113.6428029706977
 20
36.15939333045084
 30
0.0
  0
VERTEX
  5
214
  8
LAYER_1
 10
113.9302269821025
 20
36.65526876132521
 30
0.0
  0
VERTEX
  5
215
  8
LAYER_1
 10
114.2284428986828
 20
37.14803855342509
 30
0.0
  0
VERTEX
  5
216
  8
LAYER_1
 10
114.5372107866806
 20
37.6373762646575
 30
0.0
  0
VERTEX
  5
217
  8
LAYER_1
 10
114.8562907123379
 20
38.12295545292949
 30
0.0
  0
VERTEX
  5
218
  8
LAYER_1
 10
115.1854427418966
 20
38.60444967614808
 30
0.0
  0
VERTEX
  5
219
  8
LAYER_1
 10
115.5244269415985
 20
39.08153249222029
 30
0.0
  0
VERTEX
  5
21A
  8
LAYER_1
 10
115.8730033776857
 20
39.55387745905317
 30
0.0
  0
VERTEX
  5
21B
  8
LAYER_1
 10
116.2309321164001
 20
40.02115813455372
 30
0.0
  0
VERTEX
  5
21C
  8
LAYER_1
 10
116.5979732239836
 20
40.48304807662898
 30
0.0
  0
VERTEX
  5
21D
  8
LAYER_1
 10
116.9738867666783
 20
40.93922084318598
 30
0.0
  0
VERTEX
  5
21E
  8
LAYER_1
 10
117.3584328107259
 20
41.38934999213174
 30
0.0
  0
VERTEX
  5
21F
  8
LAYER_1
 10
117.358632820344
 20
94.59485000000001
 30
0.0
  0
VERTEX
  5
220
  8
LAYER_1
 10
144.6797013020277
 20
94.59745710945134
 30
0.0
  0
VERTEX
  5
221
  8
LAYER_1
 10
145.0507764442728
 20
94.60293733667362
 30
0.0
  0
VERTEX
  5
222
  8
LAYER_1
 10
145.4140414748735
 20
94.61919686961778
 30
0.0
  0
VERTEX
  5
223
  8
LAYER_1
 10
145.7695557996278
 20
94.64596398519987
 30
0.0
  0
VERTEX
  5
224
  8
LAYER_1
 10
146.1173788243336
 20
94.68296696033596
 30
0.0
  0
VERTEX
  5
225
  8
LAYER_1
 10
146.457569954789
 20
94.72993407194207
 30
0.0
  0
VERTEX
  5
226
  8
LAYER_1
 10
146.7901885967921
 20
94.78659359693421
 30
0.0
  0
VERTEX
  5
227
  8
LAYER_1
 10
147.1152941561408
 20
94.85267381222843
 30
0.0
  0
VERTEX
  5
228
  8
LAYER_1
 10
147.4329460386332
 20
94.92790299474078
 30
0.0
  0
VERTEX
  5
229
  8
LAYER_1
 10
147.7432036500673
 20
95.01200942138728
 30
0.0
  0
VERTEX
  5
22A
  8
LAYER_1
 10
148.0461263962411
 20
95.10472136908398
 30
0.0
  0
VERTEX
  5
22B
  8
LAYER_1
 10
148.3417736829526
 20
95.20576711474692
 30
0.0
  0
VERTEX
  5
22C
  8
LAYER_1
 10
148.6302049159998
 20
95.31487493529212
 30
0.0
  0
VERTEX
  5
22D
  8
LAYER_1
 10
148.9114795011808
 20
95.43177310763565
 30
0.0
  0
VERTEX
  5
22E
  8
LAYER_1
 10
149.1856568442935
 20
95.55618990869351
 30
0.0
  0
VERTEX
  5
22F
  8
LAYER_1
 10
149.4527963511361
 20
95.68785361538175
 30
0.0
  0
VERTEX
  5
230
  8
LAYER_1
 10
149.7129574275064
 20
95.82649250461643
 30
0.0
  0
VERTEX
  5
231
  8
LAYER_1
 10
149.9661994792026
 20
95.97183485331354
 30
0.0
  0
VERTEX
  5
232
  8
LAYER_1
 10
150.2125819120226
 20
96.12360893838917
 30
0.0
  0
VERTEX
  5
233
  8
LAYER_1
 10
150.4521641317644
 20
96.28154303675933
 30
0.0
  0
VERTEX
  5
234
  8
LAYER_1
 10
150.6850055442261
 20
96.44536542534004
 30
0.0
  0
VERTEX
  5
235
  8
LAYER_1
 10
150.9111655552057
 20
96.61480438104736
 30
0.0
  0
VERTEX
  5
236
  8
LAYER_1
 10
151.1307035705013
 20
96.78958818079732
 30
0.0
  0
VERTEX
  5
237
  8
LAYER_1
 10
151.3436789959107
 20
96.96944510150595
 30
0.0
  0
VERTEX
  5
238
  8
LAYER_1
 10
151.5501512372321
 20
97.15410342008933
 30
0.0
  0
VERTEX
  5
239
  8
LAYER_1
 10
151.9438237908027
 20
97.53673735854436
 30
0.0
  0
VERTEX
  5
23A
  8
LAYER_1
 10
152.3121964775974
 20
97.9353162114907
 30
0.0
  0
VERTEX
  5
23B
  8
LAYER_1
 10
152.6557445440001
 20
98.34766619425665
 30
0.0
  0
VERTEX
  5
23C
  8
LAYER_1
 10
152.9749432363951
 20
98.77161352217051
 30
0.0
  0
VERTEX
  5
23D
  8
LAYER_1
 10
153.2702678011664
 20
99.20498441056057
 30
0.0
  0
VERTEX
  5
23E
  8
LAYER_1
 10
153.5421934846983
 20
99.64560507475515
 30
0.0
  0
VERTEX
  5
23F
  8
LAYER_1
 10
153.7911955333749
 20
100.0913017300825
 30
0.0
  0
VERTEX
  5
240
  8
LAYER_1
 10
154.0177491935803
 20
100.539900591871
 30
0.0
  0
VERTEX
  5
241
  8
LAYER_1
 10
154.2223297116986
 20
100.9892278754489
 30
0.0
  0
VERTEX
  5
242
  8
LAYER_1
 10
154.405412334114
 20
101.4371097961445
 30
0.0
  0
VERTEX
  5
243
  8
LAYER_1
 10
154.5674723072106
 20
101.881372569286
 30
0.0
  0
VERTEX
  5
244
  8
LAYER_1
 10
154.7089848773726
 20
102.3198424102019
 30
0.0
  0
VERTEX
  5
245
  8
LAYER_1
 10
154.8304252909841
 20
102.7503455342203
 30
0.0
  0
VERTEX
  5
246
  8
LAYER_1
 10
154.9322687944292
 20
103.1707081566696
 30
0.0
  0
VERTEX
  5
247
  8
LAYER_1
 10
155.014990634092
 20
103.5787564928781
 30
0.0
  0
VERTEX
  5
248
  8
LAYER_1
 10
155.0790660563568
 20
103.9723167581741
 30
0.0
  0
VERTEX
  5
249
  8
LAYER_1
 10
155.1249703076077
 20
104.3492151678859
 30
0.0
  0
VERTEX
  5
24A
  8
LAYER_1
 10
155.1531786342287
 20
104.7072779373417
 30
0.0
  0
VERTEX
  5
24B
  8
LAYER_1
 10
155.1641662826041
 20
105.0443312818699
 30
0.0
  0
VERTEX
  5
24C
  8
LAYER_1
 10
155.1584084991179
 20
105.3582014167987
 30
0.0
  0
VERTEX
  5
24D
  8
LAYER_1
 10
155.1144699811646
 20
106.0169385203505
 30
0.0
  0
VERTEX
  5
24E
  8
LAYER_1
 10
155.0787261721728
 20
106.3787279234568
 30
0.0
  0
VERTEX
  5
24F
  8
LAYER_1
 10
155.0319694336595
 20
106.7592323167055
 30
0.0
  0
VERTEX
  5
250
  8
LAYER_1
 10
154.9728273434912
 20
107.1562775170377
 30
0.0
  0
VERTEX
  5
251
  8
LAYER_1
 10
154.8999274795344
 20
107.5676893413949
 30
0.0
  0
VERTEX
  5
252
  8
LAYER_1
 10
154.8118974196555
 20
107.9912936067185
 30
0.0
  0
VERTEX
  5
253
  8
LAYER_1
 10
154.707364741721
 20
108.4249161299498
 30
0.0
  0
VERTEX
  5
254
  8
LAYER_1
 10
154.5849570235974
 20
108.8663827280303
 30
0.0
  0
VERTEX
  5
255
  8
LAYER_1
 10
154.4433018431512
 20
109.3135192179015
 30
0.0
  0
VERTEX
  5
256
  8
LAYER_1
 10
154.2810267782489
 20
109.7641514165045
 30
0.0
  0
VERTEX
  5
257
  8
LAYER_1
 10
154.0967594067568
 20
110.2161051407809
 30
0.0
  0
VERTEX
  5
258
  8
LAYER_1
 10
153.8891273065416
 20
110.6672062076721
 30
0.0
  0
VERTEX
  5
259
  8
LAYER_1
 10
153.6567580554697
 20
111.1152804341194
 30
0.0
  0
VERTEX
  5
25A
  8
LAYER_1
 10
153.3982792314075
 20
111.5581536370642
 30
0.0
  0
VERTEX
  5
25B
  8
LAYER_1
 10
153.1123184122215
 20
111.9936516334479
 30
0.0
  0
VERTEX
  5
25C
  8
LAYER_1
 10
152.9586033725404
 20
112.2079554969735
 30
0.0
  0
VERTEX
  5
25D
  8
LAYER_1
 10
152.7975031757782
 20
112.4196002402119
 30
0.0
  0
VERTEX
  5
25E
  8
LAYER_1
 10
152.6288462691684
 20
112.6283140902807
 30
0.0
  0
VERTEX
  5
25F
  8
LAYER_1
 10
152.4524610999442
 20
112.8338252742976
 30
0.0
  0
VERTEX
  5
260
  8
LAYER_1
 10
152.2681761153389
 20
113.0358620193803
 30
0.0
  0
VERTEX
  5
261
  8
LAYER_1
 10
152.0758197625858
 20
113.2341525526464
 30
0.0
  0
VERTEX
  5
262
  8
LAYER_1
 10
151.8752204889182
 20
113.4284251012136
 30
0.0
  0
VERTEX
  5
263
  8
LAYER_1
 10
151.6662067415695
 20
113.6184078921997
 30
0.0
  0
VERTEX
  5
264
  8
LAYER_1
 10
151.4486069677729
 20
113.8038291527222
 30
0.0
  0
VERTEX
  5
265
  8
LAYER_1
 10
151.2222496147618
 20
113.9844171098988
 30
0.0
  0
VERTEX
  5
266
  8
LAYER_1
 10
150.9869631297695
 20
114.1598999908473
 30
0.0
  0
VERTEX
  5
267
  8
LAYER_1
 10
150.7425759600293
 20
114.3300060226853
 30
0.0
  0
VERTEX
  5
268
  8
LAYER_1
 10
150.4889165527745
 20
114.4944634325304
 30
0.0
  0
VERTEX
  5
269
  8
LAYER_1
 10
150.2258133552383
 20
114.6530004475003
 30
0.0
  0
VERTEX
  5
26A
  8
LAYER_1
 10
149.9530948146542
 20
114.8053452947128
 30
0.0
  0
VERTEX
  5
26B
  8
LAYER_1
 10
149.6705893782554
 20
114.9512262012855
 30
0.0
  0
VERTEX
  5
26C
  8
LAYER_1
 10
149.3781254932751
 20
115.090371394336
 30
0.0
  0
VERTEX
  5
26D
  8
LAYER_1
 10
149.0755316069469
 20
115.222509100982
 30
0.0
  0
VERTEX
  5
26E
  8
LAYER_1
 10
148.762636166504
 20
115.3473675483413
 30
0.0
  0
VERTEX
  5
26F
  8
LAYER_1
 10
148.4392676191795
 20
115.4646749635314
 30
0.0
  0
VERTEX
  5
270
  8
LAYER_1
 10
148.1052544122069
 20
115.5741595736701
 30
0.0
  0
VERTEX
  5
271
  8
LAYER_1
 10
147.7604249928195
 20
115.675549605875
 30
0.0
  0
VERTEX
  5
272
  8
LAYER_1
 10
147.4046078082506
 20
115.7685732872639
 30
0.0
  0
VERTEX
  5
273
  8
LAYER_1
 10
147.0376313057336
 20
115.8529588449543
 30
0.0
  0
VERTEX
  5
274
  8
LAYER_1
 10
146.6593239325016
 20
115.9284345060639
 30
0.0
  0
VERTEX
  5
275
  8
LAYER_1
 10
146.269514135788
 20
115.9947284977105
 30
0.0
  0
VERTEX
  5
276
  8
LAYER_1
 10
145.8680303628261
 20
116.0515690470117
 30
0.0
  0
VERTEX
  5
277
  8
LAYER_1
 10
145.4547010608493
 20
116.0986843810851
 30
0.0
  0
VERTEX
  5
278
  8
LAYER_1
 10
145.0293546770909
 20
116.1358027270486
 30
0.0
  0
VERTEX
  5
279
  8
LAYER_1
 10
144.5918196587841
 20
116.1626523120196
 30
0.0
  0
VERTEX
  5
27A
  8
LAYER_1
 10
144.1419244531622
 20
116.1789613631159
 30
0.0
  0
VERTEX
  5
27B
  8
LAYER_1
 10
143.6794975074586
 20
116.1844581074552
 30
0.0
  0
VERTEX
  5
27C
  8
LAYER_1
 10
135.290232820344
 20
131.76695
 30
0.0
  0
VERTEX
  5
27D
  8
LAYER_1
 10
86.02403282034398
 20
146.64655
 30
0.0
  0
VERTEX
  5
27E
  8
LAYER_1
 10
81.90743282034397
 20
147.36395
 30
0.0
  0
VERTEX
  5
27F
  8
LAYER_1
 10
66.66253282034397
 20
149.76995
 30
0.0
  0
VERTEX
  5
280
  8
LAYER_1
 10
17.56798282034397
 20
165.02265
 30
0.0
  0
VERTEX
  5
281
  8
LAYER_1
 10
-17.56796717965603
 20
165.02265
 30
0.0
  0
VERTEX
  5
282
  8
LAYER_1
 10
-66.66256717965604
 20
149.76995
 30
0.0
  0
VERTEX
  5
283
  8
LAYER_1
 10
-81.90746717965602
 20
147.36395
 30
0.0
  0
VERTEX
  5
284
  8
LAYER_1
 10
-86.02396717965603
 20
146.64655
 30
0.0
  0
VERTEX
  5
285
  8
LAYER_1
 10
-135.290267179656
 20
131.76695
 30
0.0
  0
VERTEX
  5
286
  8
LAYER_1
 10
-143.6637312347679
 20
116.2836880217976
 30
0.0
  0
VERTEX
  5
287
  8
LAYER_1
 10
-143.9839931951714
 20
116.2952222883234
 30
0.0
  0
VERTEX
  5
288
  8
LAYER_1
 10
-144.3010001286275
 20
116.2988402329943
 30
0.0
  0
VERTEX
  5
289
  8
LAYER_1
 10
-144.6146948029426
 20
116.2946476355036
 30
0.0
  0
VERTEX
  5
28A
  8
LAYER_1
 10
-144.9250199859233
 20
116.2827502755446
 30
0.0
  0
VERTEX
  5
28B
  8
LAYER_1
 10
-145.2319184453762
 20
116.2632539328104
 30
0.0
  0
VERTEX
  5
28C
  8
LAYER_1
 10
-145.5353329491076
 20
116.2362643869943
 30
0.0
  0
VERTEX
  5
28D
  8
LAYER_1
 10
-145.8352062649244
 20
116.2018874177895
 30
0.0
  0
VERTEX
  5
28E
  8
LAYER_1
 10
-146.1314811606327
 20
116.1602288048892
 30
0.0
  0
VERTEX
  5
28F
  8
LAYER_1
 10
-146.4241004040394
 20
116.1113943279866
 30
0.0
  0
VERTEX
  5
290
  8
LAYER_1
 10
-146.7130067629508
 20
116.055489766775
 30
0.0
  0
VERTEX
  5
291
  8
LAYER_1
 10
-146.9981430051736
 20
115.9926209009477
 30
0.0
  0
VERTEX
  5
292
  8
LAYER_1
 10
-147.2794518985143
 20
115.9228935101977
 30
0.0
  0
VERTEX
  5
293
  8
LAYER_1
 10
-147.8303587097752
 20
115.763286272703
 30
0.0
  0
VERTEX
  5
294
  8
LAYER_1
 10
-148.3652693391858
 20
115.5775142918366
 30
0.0
  0
VERTEX
  5
295
  8
LAYER_1
 10
-148.8837259291985
 20
115.3664238051445
 30
0.0
  0
VERTEX
  5
296
  8
LAYER_1
 10
-149.3852706222655
 20
115.1308610501723
 30
0.0
  0
VERTEX
  5
297
  8
LAYER_1
 10
-149.869445560839
 20
114.8716722644659
 30
0.0
  0
VERTEX
  5
298
  8
LAYER_1
 10
-150.3357928873713
 20
114.5897036855711
 30
0.0
  0
VERTEX
  5
299
  8
LAYER_1
 10
-150.7838547443146
 20
114.2858015510336
 30
0.0
  0
VERTEX
  5
29A
  8
LAYER_1
 10
-151.2131732741212
 20
113.9608120983994
 30
0.0
  0
VERTEX
  5
29B
  8
LAYER_1
 10
-151.6232906192434
 20
113.6155815652141
 30
0.0
  0
VERTEX
  5
29C
  8
LAYER_1
 10
-152.0137489221333
 20
113.2509561890236
 30
0.0
  0
VERTEX
  5
29D
  8
LAYER_1
 10
-152.3840903252432
 20
112.8677822073736
 30
0.0
  0
VERTEX
  5
29E
  8
LAYER_1
 10
-152.7338569710255
 20
112.46690585781
 30
0.0
  0
VERTEX
  5
29F
  8
LAYER_1
 10
-153.0625910019322
 20
112.0491733778786
 30
0.0
  0
VERTEX
  5
2A0
  8
LAYER_1
 10
-153.3698345604158
 20
111.6154310051252
 30
0.0
  0
VERTEX
  5
2A1
  8
LAYER_1
 10
-153.6551297889284
 20
111.1665249770955
 30
0.0
  0
VERTEX
  5
2A2
  8
LAYER_1
 10
-153.9180188299223
 20
110.7033015313353
 30
0.0
  0
VERTEX
  5
2A3
  8
LAYER_1
 10
-154.1580438258498
 20
110.2266069053905
 30
0.0
  0
VERTEX
  5
2A4
  8
LAYER_1
 10
-154.374746919163
 20
109.7372873368069
 30
0.0
  0
VERTEX
  5
2A5
  8
LAYER_1
 10
-154.5676702523143
 20
109.2361890631302
 30
0.0
  0
VERTEX
  5
2A6
  8
LAYER_1
 10
-154.7363559677559
 20
108.7241583219063
 30
0.0
  0
VERTEX
  5
2A7
  8
LAYER_1
 10
-154.8803462079401
 20
108.2020413506809
 30
0.0
  0
VERTEX
  5
2A8
  8
LAYER_1
 10
-154.9991831153191
 20
107.6706843869998
 30
0.0
  0
VERTEX
  5
2A9
  8
LAYER_1
 10
-155.0924088323451
 20
107.1309336684089
 30
0.0
  0
VERTEX
  5
2AA
  8
LAYER_1
 10
-155.1595655014704
 20
106.583635432454
 30
0.0
  0
VERTEX
  5
2AB
  8
LAYER_1
 10
-155.2001952651472
 20
106.0296359166807
 30
0.0
  0
VERTEX
  5
2AC
  8
LAYER_1
 10
-155.2138402658279
 20
105.469781358635
 30
0.0
  0
VERTEX
  5
2AD
  8
LAYER_1
 10
-155.2007817194018
 20
104.998686118496
 30
0.0
  0
VERTEX
  5
2AE
  8
LAYER_1
 10
-155.1619694404576
 20
104.5237233307504
 30
0.0
  0
VERTEX
  5
2AF
  8
LAYER_1
 10
-155.0979484694965
 20
104.0461273944052
 30
0.0
  0
VERTEX
  5
2B0
  8
LAYER_1
 10
-155.0092638470197
 20
103.5671327084676
 30
0.0
  0
VERTEX
  5
2B1
  8
LAYER_1
 10
-154.8964606135283
 20
103.0879736719447
 30
0.0
  0
VERTEX
  5
2B2
  8
LAYER_1
 10
-154.7600838095238
 20
102.6098846838437
 30
0.0
  0
VERTEX
  5
2B3
  8
LAYER_1
 10
-154.6006784755072
 20
102.1341001431715
 30
0.0
  0
VERTEX
  5
2B4
  8
LAYER_1
 10
-154.4187896519797
 20
101.6618544489353
 30
0.0
  0
VERTEX
  5
2B5
  8
LAYER_1
 10
-154.2149623794425
 20
101.1943820001423
 30
0.0
  0
VERTEX
  5
2B6
  8
LAYER_1
 10
-153.9897416983969
 20
100.7329171957996
 30
0.0
  0
VERTEX
  5
2B7
  8
LAYER_1
 10
-153.7436726493441
 20
100.2786944349141
 30
0.0
  0
VERTEX
  5
2B8
  8
LAYER_1
 10
-153.4773002727852
 20
99.83294811649314
 30
0.0
  0
VERTEX
  5
2B9
  8
LAYER_1
 10
-153.1911696092216
 20
99.39691263954374
 30
0.0
  0
VERTEX
  5
2BA
  8
LAYER_1
 10
-152.8858256991542
 20
98.971822403073
 30
0.0
  0
VERTEX
  5
2BB
  8
LAYER_1
 10
-152.5618135830845
 20
98.55891180608805
 30
0.0
  0
VERTEX
  5
2BC
  8
LAYER_1
 10
-152.2196783015136
 20
98.159415247596
 30
0.0
  0
VERTEX
  5
2BD
  8
LAYER_1
 10
-151.8599648949427
 20
97.77456712660396
 30
0.0
  0
VERTEX
  5
2BE
  8
LAYER_1
 10
-151.4832184038729
 20
97.405601842119
 30
0.0
  0
VERTEX
  5
2BF
  8
LAYER_1
 10
-151.0899838688056
 20
97.05375379314826
 30
0.0
  0
VERTEX
  5
2C0
  8
LAYER_1
 10
-150.6808063302419
 20
96.72025737869886
 30
0.0
  0
VERTEX
  5
2C1
  8
LAYER_1
 10
-150.256230828683
 20
96.40634699777789
 30
0.0
  0
VERTEX
  5
2C2
  8
LAYER_1
 10
-149.8168024046302
 20
96.11325704939244
 30
0.0
  0
VERTEX
  5
2C3
  8
LAYER_1
 10
-149.3630660985846
 20
95.84222193254968
 30
0.0
  0
VERTEX
  5
2C4
  8
LAYER_1
 10
-148.8955669510474
 20
95.59447604625666
 30
0.0
  0
VERTEX
  5
2C5
  8
LAYER_1
 10
-148.41485000252
 20
95.37125378952051
 30
0.0
  0
VERTEX
  5
2C6
  8
LAYER_1
 10
-147.9214602935033
 20
95.17378956134834
 30
0.0
  0
VERTEX
  5
2C7
  8
LAYER_1
 10
-147.6701834789682
 20
95.08510245766348
 30
0.0
  0
VERTEX
  5
2C8
  8
LAYER_1
 10
-147.4159428644988
 20
95.00331776074727
 30
0.0
  0
VERTEX
  5
2C9
  8
LAYER_1
 10
-147.1588065801577
 20
94.92858977047561
 30
0.0
  0
VERTEX
  5
2CA
  8
LAYER_1
 10
-146.8988427560075
 20
94.86107278672438
 30
0.0
  0
VERTEX
  5
2CB
  8
LAYER_1
 10
-146.636119522111
 20
94.80092110936948
 30
0.0
  0
VERTEX
  5
2CC
  8
LAYER_1
 10
-146.3707050085307
 20
94.7482890382868
 30
0.0
  0
VERTEX
  5
2CD
  8
LAYER_1
 10
-146.1026673453293
 20
94.70333087335223
 30
0.0
  0
VERTEX
  5
2CE
  8
LAYER_1
 10
-145.8320746625696
 20
94.66620091444165
 30
0.0
  0
VERTEX
  5
2CF
  8
LAYER_1
 10
-145.5589950903141
 20
94.63705346143094
 30
0.0
  0
VERTEX
  5
2D0
  8
LAYER_1
 10
-145.2834967586253
 20
94.61604281419599
 30
0.0
  0
VERTEX
  5
2D1
  8
LAYER_1
 10
-145.0056477975662
 20
94.60332327261271
 30
0.0
  0
VERTEX
  5
2D2
  8
LAYER_1
 10
-144.7255163371992
 20
94.59904913655697
 30
0.0
  0
VERTEX
  5
2D3
  8
LAYER_1
 10
-144.6797333773341
 20
94.59745711025897
 30
0.0
  0
VERTEX
  5
2D4
  8
LAYER_1
 10
-144.633916836069
 20
94.59605729728071
 30
0.0
  0
VERTEX
  5
2D5
  8
LAYER_1
 10
-144.5880671913977
 20
94.59485000028437
 30
0.0
  0
VERTEX
  5
2D6
  8
LAYER_1
 10
-117.358667179656
 20
94.59485000000001
 30
0.0
  0
VERTEX
  5
2D7
  8
LAYER_1
 10
-117.3586671700379
 20
41.38864999213175
 30
0.0
  0
VERTEX
  5
2D8
  8
LAYER_1
 10
-116.7221613917136
 20
40.53465491628465
 30
0.0
  0
VERTEX
  5
2D9
  8
LAYER_1
 10
-116.0898183924011
 20
39.64810829338808
 30
0.0
  0
VERTEX
  5
2DA
  8
LAYER_1
 10
-115.4667300062577
 20
38.73259239412578
 30
0.0
  0
VERTEX
  5
2DB
  8
LAYER_1
 10
-114.8579880674404
 20
37.79168948918154
 30
0.0
  0
VERTEX
  5
2DC
  8
LAYER_1
 10
-114.268684410106
 20
36.8289818492391
 30
0.0
  0
VERTEX
  5
2DD
  8
LAYER_1
 10
-113.9829131351691
 20
36.34057071323223
 30
0.0
  0
VERTEX
  5
2DE
  8
LAYER_1
 10
-113.7039108684118
 20
35.84805174498223
 30
0.0
  0
VERTEX
  5
2DF
  8
LAYER_1
 10
-113.4323140891037
 20
35.35187272832457
 30
0.0
  0
VERTEX
  5
2E0
  8
LAYER_1
 10
-113.1687592765146
 20
34.8524814470947
 30
0.0
  0
VERTEX
  5
2E1
  8
LAYER_1
 10
-112.913882909914
 20
34.35032568512811
 30
0.0
  0
VERTEX
  5
2E2
  8
LAYER_1
 10
-112.6683214685715
 20
33.84585322626027
 30
0.0
  0
VERTEX
  5
2E3
  8
LAYER_1
 10
-112.4327114317568
 20
33.33951185432664
 30
0.0
  0
VERTEX
  5
2E4
  8
LAYER_1
 10
-112.2076892787395
 20
32.83174935316271
 30
0.0
  0
VERTEX
  5
2E5
  8
LAYER_1
 10
-111.9938914887893
 20
32.32301350660392
 30
0.0
  0
VERTEX
  5
2E6
  8
LAYER_1
 10
-111.7919545411757
 20
31.81375209848576
 30
0.0
  0
VERTEX
  5
2E7
  8
LAYER_1
 10
-111.6025149151685
 20
31.30441291264371
 30
0.0
  0
VERTEX
  5
2E8
  8
LAYER_1
 10
-111.4262090900371
 20
30.79544373291321
 30
0.0
  0
VERTEX
  5
2E9
  8
LAYER_1
 10
-111.2636735450513
 20
30.28729234312976
 30
0.0
  0
VERTEX
  5
2EA
  8
LAYER_1
 10
-111.1155447594807
 20
29.78040652712882
 30
0.0
  0
VERTEX
  5
2EB
  8
LAYER_1
 10
-110.9824592125948
 20
29.27523406874585
 30
0.0
  0
VERTEX
  5
2EC
  8
LAYER_1
 10
-110.8650533836634
 20
28.77222275181634
 30
0.0
  0
VERTEX
  5
2ED
  8
LAYER_1
 10
-110.7639637519561
 20
28.27182036017574
 30
0.0
  0
VERTEX
  5
2EE
  8
LAYER_1
 10
-110.6798267967424
 20
27.77447467765953
 30
0.0
  0
VERTEX
  5
2EF
  8
LAYER_1
 10
-110.6132789972921
 20
27.28063348810319
 30
0.0
  0
VERTEX
  5
2F0
  8
LAYER_1
 10
-110.5649568328747
 20
26.79074457534217
 30
0.0
  0
VERTEX
  5
2F1
  8
LAYER_1
 10
-110.5354967827599
 20
26.30525572321196
 30
0.0
  0
VERTEX
  5
2F2
  8
LAYER_1
 10
-110.5255353262172
 20
25.82461471554802
 30
0.0
  0
VERTEX
  5
2F3
  8
LAYER_1
 10
-110.5355175089852
 20
25.35067308631797
 30
0.0
  0
VERTEX
  5
2F4
  8
LAYER_1
 10
-110.5650370634258
 20
24.86694975654314
 30
0.0
  0
VERTEX
  5
2F5
  8
LAYER_1
 10
-110.6134534987435
 20
24.37434706309652
 30
0.0
  0
VERTEX
  5
2F6
  8
LAYER_1
 10
-110.6801263241432
 20
23.8737673428511
 30
0.0
  0
VERTEX
  5
2F7
  8
LAYER_1
 10
-110.7644150488295
 20
23.36611293267987
 30
0.0
  0
VERTEX
  5
2F8
  8
LAYER_1
 10
-110.8656791820071
 20
22.85228616945581
 30
0.0
  0
VERTEX
  5
2F9
  8
LAYER_1
 10
-110.9832782328807
 20
22.33318939005192
 30
0.0
  0
VERTEX
  5
2FA
  8
LAYER_1
 10
-111.1165717106549
 20
21.80972493134119
 30
0.0
  0
VERTEX
  5
2FB
  8
LAYER_1
 10
-111.2649191245346
 20
21.28279513019659
 30
0.0
  0
VERTEX
  5
2FC
  8
LAYER_1
 10
-111.4276799837243
 20
20.75330232349113
 30
0.0
  0
VERTEX
  5
2FD
  8
LAYER_1
 10
-111.6042137974289
 20
20.22214884809779
 30
0.0
  0
VERTEX
  5
2FE
  8
LAYER_1
 10
-111.7938800748529
 20
19.69023704088955
 30
0.0
  0
VERTEX
  5
2FF
  8
LAYER_1
 10
-111.9960383252011
 20
19.15846923873941
 30
0.0
  0
VERTEX
  5
300
  8
LAYER_1
 10
-112.2100480576781
 20
18.62774777852036
 30
0.0
  0
VERTEX
  5
301
  8
LAYER_1
 10
-112.4352687814887
 20
18.09897499710538
 30
0.0
  0
VERTEX
  5
302
  8
LAYER_1
 10
-112.6710600058376
 20
17.57305323136746
 30
0.0
  0
VERTEX
  5
303
  8
LAYER_1
 10
-112.9167812399295
 20
17.05088481817959
 30
0.0
  0
VERTEX
  5
304
  8
LAYER_1
 10
-113.171791992969
 20
16.53337209441477
 30
0.0
  0
VERTEX
  5
305
  8
LAYER_1
 10
-113.4354517741609
 20
16.02141739694597
 30
0.0
  0
VERTEX
  5
306
  8
LAYER_1
 10
-113.7071200927098
 20
15.51592306264619
 30
0.0
  0
VERTEX
  5
307
  8
LAYER_1
 10
-113.9861564578204
 20
15.01779142838842
 30
0.0
  0
VERTEX
  5
308
  8
LAYER_1
 10
-114.2719203786975
 20
14.52792483104563
 30
0.0
  0
VERTEX
  5
309
  8
LAYER_1
 10
-114.5637713645458
 20
14.04722560749084
 30
0.0
  0
VERTEX
  5
30A
  8
LAYER_1
 10
-114.8610689245698
 20
13.57659609459701
 30
0.0
  0
VERTEX
  5
30B
  8
LAYER_1
 10
-115.1631725679745
 20
13.11693862923714
 30
0.0
  0
VERTEX
  5
30C
  8
LAYER_1
 10
-115.4694418039643
 20
12.66915554828423
 30
0.0
  0
VERTEX
  5
30D
  8
LAYER_1
 10
-115.7792361417441
 20
12.23414918861125
 30
0.0
  0
VERTEX
  5
30E
  8
LAYER_1
 10
-116.0919150905184
 20
11.81282188709119
 30
0.0
  0
VERTEX
  5
30F
  8
LAYER_1
 10
-116.4068381594921
 20
11.40607598059705
 30
0.0
  0
VERTEX
  5
310
  8
LAYER_1
 10
-116.7233648578698
 20
11.01481380600182
 30
0.0
  0
VERTEX
  5
311
  8
LAYER_1
 10
-117.0408546948562
 20
10.63993770017847
 30
0.0
  0
VERTEX
  5
312
  8
LAYER_1
 10
-117.358667179656
 20
10.28235000000001
 30
0.0
  0
VERTEX
  5
313
  8
LAYER_1
 10
-117.358167179656
 20
1.174950000000024
 30
0.0
  0
VERTEX
  5
314
  8
LAYER_1
 10
-154.307267179656
 20
1.174950000000024
 30
0.0
  0
VERTEX
  5
315
  8
LAYER_1
 10
-154.353667179656
 20
-77.31254999999999
 30
0.0
  0
VERTEX
  5
316
  8
LAYER_1
 10
-145.098967179656
 20
-131.98255
 30
0.0
  0
SEQEND
  5
317
  8
LAYER_1
  0
POLYLINE
  5
79
  8
LAYER_1
 66
     1
 10
0.0
 20
0.0
 30
0.0
 70
     1
  0
VERTEX
  5
318
  8
LAYER_1
 10
85.5376042689769
 20
32.57399983460682
 30
0.0
 42
0.4142135623730951
  0
VERTEX
  5
319
  8
LAYER_1
 10
67.69092432003036
 20
14.72731988566027
 30
0.0
 42
0.4142135623730951
  0
VERTEX
  5
31A
  8
LAYER_1
 10
85.5376042689769
 20
-3.119360063286278
 30
0.0
 42
0.4142135623730951
  0
VERTEX
  5
31B
  8
LAYER_1
 10
103.3842842179235
 20
14.72731988566027
 30
0.0
 42
0.4142135623730951
  0
SEQEND
  5
31C
  8
LAYER_1
  0
ENDSEC
  0
EOF
