  0
SECTION
  2
HEADER
  9
$ACADVER
  1
AC1009
  9
$DWGCODEPAGE
  3
ansi_1252
  9
$INSBASE
 10
0.0
 20
0.0
 30
0.0
  9
$EXTMIN
 10
-154.9866065555416
 20
-148.15285
 30
0.0
  9
$EXTMAX
 10
155.01081424041
 20
148.15285
 30
0.0
  9
$LIMMIN
 10
0.0
 20
0.0
  9
$LIMMAX
 10
12.0
 20
9.0
  9
$ORTHOMODE
 70
     0
  9
$REGENMODE
 70
     1
  9
$FILLMODE
 70
     1
  9
$QTEXTMODE
 70
     0
  9
$MIRRTEXT
 70
     1
  9
$DRAGMODE
 70
     2
  9
$LTSCALE
 40
1.0
  9
$OSMODE
 70
    37
  9
$ATTMODE
 70
     1
  9
$TEXTSIZE
 40
0.2
  9
$TRACEWID
 40
0.05
  9
$TEXTSTYLE
  7
STANDARD
  9
$CLAYER
  8
0
  9
$CELTYPE
  6
BYLAYER
  9
$CECOLOR
 62
   256
  9
$DIMSCALE
 40
1.0
  9
$DIMASZ
 40
0.18
  9
$DIMEXO
 40
0.0625
  9
$DIMDLI
 40
0.38
  9
$DIMRND
 40
0.0
  9
$DIMDLE
 40
0.0
  9
$DIMEXE
 40
0.18
  9
$DIMTP
 40
0.0
  9
$DIMTM
 40
0.0
  9
$DIMTXT
 40
0.18
  9
$DIMCEN
 40
0.09
  9
$DIMTSZ
 40
0.0
  9
$DIMTOL
 70
     0
  9
$DIMLIM
 70
     0
  9
$DIMTIH
 70
     1
  9
$DIMTOH
 70
     1
  9
$DIMSE1
 70
     0
  9
$DIMSE2
 70
     0
  9
$DIMTAD
 70
     0
  9
$DIMZIN
 70
     0
  9
$DIMBLK
  1

  9
$DIMASO
 70
     1
  9
$DIMSHO
 70
     1
  9
$DIMPOST
  1

  9
$DIMAPOST
  1

  9
$DIMALT
 70
     0
  9
$DIMALTD
 70
     2
  9
$DIMALTF
 40
25.4
  9
$DIMLFAC
 40
1.0
  9
$DIMTOFL
 70
     0
  9
$DIMTVP
 40
0.0
  9
$DIMTIX
 70
     0
  9
$DIMSOXD
 70
     0
  9
$DIMSAH
 70
     0
  9
$DIMBLK1
  1

  9
$DIMBLK2
  1

  9
$DIMSTYLE
  2
STANDARD
  9
$DIMCLRD
 70
     0
  9
$DIMCLRE
 70
     0
  9
$DIMCLRT
 70
     0
  9
$DIMTFAC
 40
1.0
  9
$DIMGAP
 40
0.09
  9
$LUNITS
 70
     2
  9
$LUPREC
 70
     4
  9
$SKETCHINC
 40
0.1
  9
$FILLETRAD
 40
0.5
  9
$AUNITS
 70
     0
  9
$AUPREC
 70
     0
  9
$MENU
  1
.
  9
$ELEVATION
 40
0.0
  9
$PELEVATION
 40
0.0
  9
$THICKNESS
 40
0.0
  9
$LIMCHECK
 70
     0
  9
$CHAMFERA
 40
0.5
  9
$CHAMFERB
 40
0.5
  9
$SKPOLY
 70
     0
  9
$TDCREATE
 40
2454910.5
  9
$TDUPDATE
 40
2457730.682748773
  9
$TDINDWG
 40
0.0000000116
  9
$TDUSRTIMER
 40
0.0000000116
  9
$USRTIMER
 70
     1
  9
$ANGBASE
 50
0.0
  9
$ANGDIR
 70
     0
  9
$PDMODE
 70
     0
  9
$PDSIZE
 40
0.0
  9
$PLINEWID
 40
0.0
  9
$COORDS
 70
     1
  9
$SPLFRAME
 70
     0
  9
$SPLINETYPE
 70
     6
  9
$SPLINESEGS
 70
     8
  9
$ATTDIA
 70
     0
  9
$ATTREQ
 70
     1
  9
$HANDLING
 70
     1
  9
$HANDSEED
  5
2A0
  9
$SURFTAB1
 70
     6
  9
$SURFTAB2
 70
     6
  9
$SURFTYPE
 70
     6
  9
$SURFU
 70
     6
  9
$SURFV
 70
     6
  9
$UCSNAME
  2

  9
$UCSORG
 10
0.0
 20
0.0
 30
0.0
  9
$UCSXDIR
 10
1.0
 20
0.0
 30
0.0
  9
$UCSYDIR
 10
0.0
 20
1.0
 30
0.0
  9
$PUCSNAME
  2

  9
$PUCSORG
 10
0.0
 20
0.0
 30
0.0
  9
$PUCSXDIR
 10
1.0
 20
0.0
 30
0.0
  9
$PUCSYDIR
 10
0.0
 20
1.0
 30
0.0
  9
$USERI1
 70
     0
  9
$USERI2
 70
     0
  9
$USERI3
 70
     0
  9
$USERI4
 70
     0
  9
$USERI5
 70
     0
  9
$USERR1
 40
0.0
  9
$USERR2
 40
0.0
  9
$USERR3
 40
0.0
  9
$USERR4
 40
0.0
  9
$USERR5
 40
0.0
  9
$WORLDVIEW
 70
     1
  9
$SHADEDGE
 70
     3
  9
$SHADEDIF
 70
    70
  9
$TILEMODE
 70
     1
  9
$MAXACTVP
 70
    64
  9
$PLIMCHECK
 70
     0
  9
$PEXTMIN
 10
1.000000000000000E+20
 20
1.000000000000000E+20
 30
1.000000000000000E+20
  9
$PEXTMAX
 10
-1.000000000000000E+20
 20
-1.000000000000000E+20
 30
-1.000000000000000E+20
  9
$PLIMMIN
 10
0.0
 20
0.0
  9
$PLIMMAX
 10
12.0
 20
9.0
  9
$UNITMODE
 70
     0
  9
$VISRETAIN
 70
     1
  9
$PLINEGEN
 70
     0
  9
$PSLTSCALE
 70
     1
  0
ENDSEC
  0
SECTION
  2
TABLES
  0
TABLE
  2
VPORT
 70
     1
  0
VPORT
  2
*ACTIVE
 70
     0
 10
0.0
 20
0.0
 11
1.0
 21
1.0
 12
10.42990654205607
 22
4.5
 13
0.0
 23
0.0
 14
0.5
 24
0.5
 15
0.5
 25
0.5
 16
0.0
 26
0.0
 36
1.0
 17
0.0
 27
0.0
 37
0.0
 40
9.0
 41
1.972972972850329
 42
50.0
 43
0.0
 44
0.0
 50
0.0
 51
0.0
 71
     0
 72
   100
 73
     1
 74
     3
 75
     0
 76
     0
 77
     0
 78
     0
  0
ENDTAB
  0
TABLE
  2
LTYPE
 70
     2
  0
LTYPE
  2
CONTINUOUS
 70
     0
  3
Solid line
 72
    65
 73
     0
 40
0.0
  0
LTYPE
  2
CONTINUOUS2
 70
     0
  3
Solid Line
 72
    65
 73
     0
 40
0.0
  0
ENDTAB
  0
TABLE
  2
LAYER
 70
     1
  0
LAYER
  2
0
 70
     0
 62
     7
  6
CONTINUOUS
  0
ENDTAB
  0
TABLE
  2
STYLE
 70
     1
  0
STYLE
  2
STANDARD
 70
     0
 40
0.0
 41
1.0
 50
0.0
 71
     0
 42
0.2
  3
txt
  4

  0
ENDTAB
  0
TABLE
  2
VIEW
 70
     0
  0
ENDTAB
  0
TABLE
  2
UCS
 70
     0
  0
ENDTAB
  0
TABLE
  2
APPID
 70
     1
  0
APPID
  2
ACAD
 70
     0
  0
ENDTAB
  0
TABLE
  2
DIMSTYLE
 70
     1
  0
DIMSTYLE
  2
STANDARD
 70
     0
  3

  4

  5

  6

  7

 40
1.0
 41
0.18
 42
0.0625
 43
0.38
 44
0.18
 45
0.0
 46
0.0
 47
0.0
 48
0.0
140
0.18
141
0.09
142
0.0
143
25.4
144
1.0
145
0.0
146
1.0
147
0.09
 71
     0
 72
     0
 73
     1
 74
     1
 75
     0
 76
     0
 77
     0
 78
     0
170
     0
171
     2
172
     0
173
     0
174
     0
175
     0
176
     0
177
     0
178
     0
  0
ENDTAB
  0
ENDSEC
  0
SECTION
  2
BLOCKS
  0
BLOCK
  8
0
  2
$MODEL_SPACE
 70
     0
 10
0.0
 20
0.0
 30
0.0
  3
$MODEL_SPACE
  1

  0
ENDBLK
  5
21
  8
0
  0
BLOCK
 67
     1
  8
0
  2
$PAPER_SPACE
 70
     0
 10
0.0
 20
0.0
 30
0.0
  3
$PAPER_SPACE
  1

  0
ENDBLK
  5
1D
 67
     1
  8
0
  0
ENDSEC
  0
SECTION
  2
ENTITIES
  0
POLYLINE
  5
40
  8
0
 66
     1
 10
0.0
 20
0.0
 30
0.0
 70
     1
  0
VERTEX
  5
7E
  8
0
 10
-27.4075
 20
120.52185
 30
0.0
  0
VERTEX
  5
7F
  8
0
 10
-19.71870000000001
 20
120.52185
 30
0.0
  0
VERTEX
  5
80
  8
0
 10
-19.71870000000001
 20
132.42125
 30
0.0
  0
VERTEX
  5
81
  8
0
 10
-27.4075
 20
132.42125
 30
0.0
  0
SEQEND
  5
82
  8
0
  0
POLYLINE
  5
41
  8
0
 66
     1
 10
0.0
 20
0.0
 30
0.0
 70
     1
  0
VERTEX
  5
83
  8
0
 10
19.69239999999999
 20
120.52185
 30
0.0
  0
VERTEX
  5
84
  8
0
 10
27.38120000000001
 20
120.52185
 30
0.0
  0
VERTEX
  5
85
  8
0
 10
27.38120000000001
 20
132.42125
 30
0.0
  0
VERTEX
  5
86
  8
0
 10
19.69239999999999
 20
132.42125
 30
0.0
  0
SEQEND
  5
87
  8
0
  0
POLYLINE
  5
42
  8
0
 66
     1
 10
0.0
 20
0.0
 30
0.0
 70
     1
  0
VERTEX
  5
88
  8
0
 10
-27.4075
 20
84.67624999999998
 30
0.0
  0
VERTEX
  5
89
  8
0
 10
-19.71870000000001
 20
84.67624999999998
 30
0.0
  0
VERTEX
  5
8A
  8
0
 10
-19.71870000000001
 20
96.57565
 30
0.0
  0
VERTEX
  5
8B
  8
0
 10
-27.4075
 20
96.57565
 30
0.0
  0
SEQEND
  5
8C
  8
0
  0
POLYLINE
  5
43
  8
0
 66
     1
 10
0.0
 20
0.0
 30
0.0
 70
     1
  0
VERTEX
  5
8D
  8
0
 10
19.69239999999999
 20
84.67624999999998
 30
0.0
  0
VERTEX
  5
8E
  8
0
 10
27.38120000000001
 20
84.67624999999998
 30
0.0
  0
VERTEX
  5
8F
  8
0
 10
27.38120000000001
 20
96.57565
 30
0.0
  0
VERTEX
  5
90
  8
0
 10
19.69239999999999
 20
96.57565
 30
0.0
  0
SEQEND
  5
91
  8
0
  0
POLYLINE
  5
44
  8
0
 66
     1
 10
0.0
 20
0.0
 30
0.0
 70
     1
  0
VERTEX
  5
92
  8
0
 10
-27.4075
 20
53.56885
 30
0.0
  0
VERTEX
  5
93
  8
0
 10
-19.71870000000001
 20
53.56885
 30
0.0
  0
VERTEX
  5
94
  8
0
 10
-19.71870000000001
 20
65.46825000000001
 30
0.0
  0
VERTEX
  5
95
  8
0
 10
-27.4075
 20
65.46825000000001
 30
0.0
  0
SEQEND
  5
96
  8
0
  0
POLYLINE
  5
45
  8
0
 66
     1
 10
0.0
 20
0.0
 30
0.0
 70
     1
  0
VERTEX
  5
97
  8
0
 10
19.7184
 20
53.56885
 30
0.0
  0
VERTEX
  5
98
  8
0
 10
27.40719999999999
 20
53.56885
 30
0.0
  0
VERTEX
  5
99
  8
0
 10
27.40719999999999
 20
65.46825000000001
 30
0.0
  0
VERTEX
  5
9A
  8
0
 10
19.7184
 20
65.46825000000001
 30
0.0
  0
SEQEND
  5
9B
  8
0
  0
POLYLINE
  5
46
  8
0
 66
     1
 10
0.0
 20
0.0
 30
0.0
 70
     1
  0
VERTEX
  5
9C
  8
0
 10
-27.4075
 20
17.72845000000001
 30
0.0
  0
VERTEX
  5
9D
  8
0
 10
-19.71870000000001
 20
17.72845000000001
 30
0.0
  0
VERTEX
  5
9E
  8
0
 10
-19.71870000000001
 20
29.62785
 30
0.0
  0
VERTEX
  5
9F
  8
0
 10
-27.4075
 20
29.62785
 30
0.0
  0
SEQEND
  5
A0
  8
0
  0
POLYLINE
  5
47
  8
0
 66
     1
 10
0.0
 20
0.0
 30
0.0
 70
     1
  0
VERTEX
  5
A1
  8
0
 10
19.7184
 20
-18.08105
 30
0.0
  0
VERTEX
  5
A2
  8
0
 10
27.40719999999999
 20
-18.08105
 30
0.0
  0
VERTEX
  5
A3
  8
0
 10
27.40719999999999
 20
-6.181649999999991
 30
0.0
  0
VERTEX
  5
A4
  8
0
 10
19.7184
 20
-6.181649999999991
 30
0.0
  0
SEQEND
  5
A5
  8
0
  0
POLYLINE
  5
48
  8
0
 66
     1
 10
0.0
 20
0.0
 30
0.0
 70
     1
  0
VERTEX
  5
A6
  8
0
 10
-27.4075
 20
-18.07845
 30
0.0
  0
VERTEX
  5
A7
  8
0
 10
-19.71870000000001
 20
-18.07845
 30
0.0
  0
VERTEX
  5
A8
  8
0
 10
-19.71870000000001
 20
-6.179049999999989
 30
0.0
  0
VERTEX
  5
A9
  8
0
 10
-27.4075
 20
-6.179049999999989
 30
0.0
  0
SEQEND
  5
AA
  8
0
  0
POLYLINE
  5
49
  8
0
 66
     1
 10
0.0
 20
0.0
 30
0.0
 70
     1
  0
VERTEX
  5
AB
  8
0
 10
19.7184
 20
17.69765000000001
 30
0.0
  0
VERTEX
  5
AC
  8
0
 10
27.40719999999999
 20
17.69765000000001
 30
0.0
  0
VERTEX
  5
AD
  8
0
 10
27.40719999999999
 20
29.59705
 30
0.0
  0
VERTEX
  5
AE
  8
0
 10
19.7184
 20
29.59705
 30
0.0
  0
SEQEND
  5
AF
  8
0
  0
POLYLINE
  5
4A
  8
0
 66
     1
 10
0.0
 20
0.0
 30
0.0
 70
     1
  0
VERTEX
  5
B0
  8
0
 10
-27.4075
 20
-134.25745
 30
0.0
  0
VERTEX
  5
B1
  8
0
 10
-19.71870000000001
 20
-134.25745
 30
0.0
  0
VERTEX
  5
B2
  8
0
 10
-19.71870000000001
 20
-122.35805
 30
0.0
  0
VERTEX
  5
B3
  8
0
 10
-27.4075
 20
-122.35805
 30
0.0
  0
SEQEND
  5
B4
  8
0
  0
POLYLINE
  5
4B
  8
0
 66
     1
 10
0.0
 20
0.0
 30
0.0
 70
     1
  0
VERTEX
  5
B5
  8
0
 10
19.7971
 20
-134.25745
 30
0.0
  0
VERTEX
  5
B6
  8
0
 10
27.48589999999999
 20
-134.25745
 30
0.0
  0
VERTEX
  5
B7
  8
0
 10
27.48589999999999
 20
-122.35805
 30
0.0
  0
VERTEX
  5
B8
  8
0
 10
19.7971
 20
-122.35805
 30
0.0
  0
SEQEND
  5
B9
  8
0
  0
POLYLINE
  5
4C
  8
0
 66
     1
 10
0.0
 20
0.0
 30
0.0
 70
     1
  0
VERTEX
  5
BA
  8
0
 10
-142.6284
 20
3.458850000000012
 30
0.0
  0
VERTEX
  5
BB
  8
0
 10
-130.6780000000001
 20
3.458850000000012
 30
0.0
  0
VERTEX
  5
BC
  8
0
 10
-130.6780000000001
 20
11.12365
 30
0.0
  0
VERTEX
  5
BD
  8
0
 10
-142.6284
 20
11.12365
 30
0.0
  0
SEQEND
  5
BE
  8
0
  0
POLYLINE
  5
4D
  8
0
 66
     1
 10
0.0
 20
0.0
 30
0.0
 70
     1
  0
VERTEX
  5
BF
  8
0
 10
-106.7828
 20
3.458850000000012
 30
0.0
  0
VERTEX
  5
C0
  8
0
 10
-94.8324
 20
3.458850000000012
 30
0.0
  0
VERTEX
  5
C1
  8
0
 10
-94.8324
 20
11.12365
 30
0.0
  0
VERTEX
  5
C2
  8
0
 10
-106.7828
 20
11.12365
 30
0.0
  0
SEQEND
  5
C3
  8
0
  0
POLYLINE
  5
4E
  8
0
 66
     1
 10
0.0
 20
0.0
 30
0.0
 70
     1
  0
VERTEX
  5
C4
  8
0
 10
94.9285
 20
3.458850000000012
 30
0.0
  0
VERTEX
  5
C5
  8
0
 10
106.8789
 20
3.458850000000012
 30
0.0
  0
VERTEX
  5
C6
  8
0
 10
106.8789
 20
11.12365
 30
0.0
  0
VERTEX
  5
C7
  8
0
 10
94.9285
 20
11.12365
 30
0.0
  0
SEQEND
  5
C8
  8
0
  0
POLYLINE
  5
4F
  8
0
 66
     1
 10
0.0
 20
0.0
 30
0.0
 70
     1
  0
VERTEX
  5
C9
  8
0
 10
130.7711
 20
3.458850000000012
 30
0.0
  0
VERTEX
  5
CA
  8
0
 10
142.7215
 20
3.458850000000012
 30
0.0
  0
VERTEX
  5
CB
  8
0
 10
142.7215
 20
11.12365
 30
0.0
  0
VERTEX
  5
CC
  8
0
 10
130.7711
 20
11.12365
 30
0.0
  0
SEQEND
  5
CD
  8
0
  0
POLYLINE
  5
50
  8
0
 66
     1
 10
0.0
 20
0.0
 30
0.0
 70
     1
  0
VERTEX
  5
CE
  8
0
 10
-137.4570000000001
 20
-16.58615
 30
0.0
  0
VERTEX
  5
CF
  8
0
 10
-127.5050000000001
 20
-16.58615
 30
0.0
  0
VERTEX
  5
D0
  8
0
 10
-127.5050000000001
 20
-12.07695000000001
 30
0.0
  0
VERTEX
  5
D1
  8
0
 10
-137.4570000000001
 20
-12.07695000000001
 30
0.0
  0
SEQEND
  5
D2
  8
0
  0
POLYLINE
  5
51
  8
0
 66
     1
 10
0.0
 20
0.0
 30
0.0
 70
     1
  0
VERTEX
  5
D3
  8
0
 10
-102.1323
 20
-16.58615
 30
0.0
  0
VERTEX
  5
D4
  8
0
 10
-92.18029999999999
 20
-16.58615
 30
0.0
  0
VERTEX
  5
D5
  8
0
 10
-92.18029999999999
 20
-12.07695000000001
 30
0.0
  0
VERTEX
  5
D6
  8
0
 10
-102.1323
 20
-12.07695000000001
 30
0.0
  0
SEQEND
  5
D7
  8
0
  0
POLYLINE
  5
52
  8
0
 66
     1
 10
0.0
 20
0.0
 30
0.0
 70
     1
  0
VERTEX
  5
D8
  8
0
 10
92.4191
 20
-16.58615
 30
0.0
  0
VERTEX
  5
D9
  8
0
 10
102.3711
 20
-16.58615
 30
0.0
  0
VERTEX
  5
DA
  8
0
 10
102.3711
 20
-12.07695000000001
 30
0.0
  0
VERTEX
  5
DB
  8
0
 10
92.4191
 20
-12.07695000000001
 30
0.0
  0
SEQEND
  5
DC
  8
0
  0
POLYLINE
  5
53
  8
0
 66
     1
 10
0.0
 20
0.0
 30
0.0
 70
     1
  0
VERTEX
  5
DD
  8
0
 10
127.4698
 20
-16.58615
 30
0.0
  0
VERTEX
  5
DE
  8
0
 10
137.4218
 20
-16.58615
 30
0.0
  0
VERTEX
  5
DF
  8
0
 10
137.4218
 20
-12.07695000000001
 30
0.0
  0
VERTEX
  5
E0
  8
0
 10
127.4698
 20
-12.07695000000001
 30
0.0
  0
SEQEND
  5
E1
  8
0
  0
POLYLINE
  5
54
  8
0
 66
     1
 10
0.0
 20
0.0
 30
0.0
 70
     1
  0
VERTEX
  5
E2
  8
0
 10
-101.3917
 20
-27.71404999999999
 30
0.0
  0
VERTEX
  5
E3
  8
0
 10
-92.7833
 20
-27.71404999999999
 30
0.0
  0
VERTEX
  5
E4
  8
0
 10
-92.7833
 20
-22.37305000000001
 30
0.0
  0
VERTEX
  5
E5
  8
0
 10
-101.3917
 20
-22.37305000000001
 30
0.0
  0
SEQEND
  5
E6
  8
0
  0
POLYLINE
  5
55
  8
0
 66
     1
 10
0.0
 20
0.0
 30
0.0
 70
     1
  0
VERTEX
  5
E7
  8
0
 10
-77.51850000000002
 20
-27.71404999999999
 30
0.0
  0
VERTEX
  5
E8
  8
0
 10
-68.9101
 20
-27.71404999999999
 30
0.0
  0
VERTEX
  5
E9
  8
0
 10
-68.9101
 20
-22.37305000000001
 30
0.0
  0
VERTEX
  5
EA
  8
0
 10
-77.51850000000002
 20
-22.37305000000001
 30
0.0
  0
SEQEND
  5
EB
  8
0
  0
POLYLINE
  5
56
  8
0
 66
     1
 10
0.0
 20
0.0
 30
0.0
 70
     1
  0
VERTEX
  5
EC
  8
0
 10
-101.3917
 20
-37.73675
 30
0.0
  0
VERTEX
  5
ED
  8
0
 10
-92.7833
 20
-37.73675
 30
0.0
  0
VERTEX
  5
EE
  8
0
 10
-92.7833
 20
-32.39574999999999
 30
0.0
  0
VERTEX
  5
EF
  8
0
 10
-101.3917
 20
-32.39574999999999
 30
0.0
  0
SEQEND
  5
F0
  8
0
  0
POLYLINE
  5
57
  8
0
 66
     1
 10
0.0
 20
0.0
 30
0.0
 70
     1
  0
VERTEX
  5
F1
  8
0
 10
-77.51850000000002
 20
-37.73675
 30
0.0
  0
VERTEX
  5
F2
  8
0
 10
-68.9101
 20
-37.73675
 30
0.0
  0
VERTEX
  5
F3
  8
0
 10
-68.9101
 20
-32.39574999999999
 30
0.0
  0
VERTEX
  5
F4
  8
0
 10
-77.51850000000002
 20
-32.39574999999999
 30
0.0
  0
SEQEND
  5
F5
  8
0
  0
POLYLINE
  5
58
  8
0
 66
     1
 10
0.0
 20
0.0
 30
0.0
 70
     1
  0
VERTEX
  5
F6
  8
0
 10
68.9859
 20
-37.73675
 30
0.0
  0
VERTEX
  5
F7
  8
0
 10
77.5943
 20
-37.73675
 30
0.0
  0
VERTEX
  5
F8
  8
0
 10
77.5943
 20
-32.39574999999999
 30
0.0
  0
VERTEX
  5
F9
  8
0
 10
68.9859
 20
-32.39574999999999
 30
0.0
  0
SEQEND
  5
FA
  8
0
  0
POLYLINE
  5
59
  8
0
 66
     1
 10
0.0
 20
0.0
 30
0.0
 70
     1
  0
VERTEX
  5
FB
  8
0
 10
68.9859
 20
-27.65645000000001
 30
0.0
  0
VERTEX
  5
FC
  8
0
 10
77.5943
 20
-27.65645000000001
 30
0.0
  0
VERTEX
  5
FD
  8
0
 10
77.5943
 20
-22.31545
 30
0.0
  0
VERTEX
  5
FE
  8
0
 10
68.9859
 20
-22.31545
 30
0.0
  0
SEQEND
  5
FF
  8
0
  0
POLYLINE
  5
5A
  8
0
 66
     1
 10
0.0
 20
0.0
 30
0.0
 70
     1
  0
VERTEX
  5
100
  8
0
 10
92.8591
 20
-27.65645000000001
 30
0.0
  0
VERTEX
  5
101
  8
0
 10
101.4675
 20
-27.65645000000001
 30
0.0
  0
VERTEX
  5
102
  8
0
 10
101.4675
 20
-22.31545
 30
0.0
  0
VERTEX
  5
103
  8
0
 10
92.8591
 20
-22.31545
 30
0.0
  0
SEQEND
  5
104
  8
0
  0
POLYLINE
  5
5B
  8
0
 66
     1
 10
0.0
 20
0.0
 30
0.0
 70
     1
  0
VERTEX
  5
105
  8
0
 10
92.8591
 20
-37.67914999999999
 30
0.0
  0
VERTEX
  5
106
  8
0
 10
101.4675
 20
-37.67914999999999
 30
0.0
  0
VERTEX
  5
107
  8
0
 10
101.4675
 20
-32.33815000000001
 30
0.0
  0
VERTEX
  5
108
  8
0
 10
92.8591
 20
-32.33815000000001
 30
0.0
  0
SEQEND
  5
109
  8
0
  0
POLYLINE
  5
5C
  8
0
 66
     1
 10
0.0
 20
0.0
 30
0.0
 70
     1
  0
VERTEX
  5
10A
  8
0
 10
-101.3917
 20
-93.41844999999999
 30
0.0
  0
VERTEX
  5
10B
  8
0
 10
-92.7833
 20
-93.41844999999999
 30
0.0
  0
VERTEX
  5
10C
  8
0
 10
-92.7833
 20
-88.07745
 30
0.0
  0
VERTEX
  5
10D
  8
0
 10
-101.3917
 20
-88.07745
 30
0.0
  0
SEQEND
  5
10E
  8
0
  0
POLYLINE
  5
5D
  8
0
 66
     1
 10
0.0
 20
0.0
 30
0.0
 70
     1
  0
VERTEX
  5
10F
  8
0
 10
-77.51850000000002
 20
-93.41844999999999
 30
0.0
  0
VERTEX
  5
110
  8
0
 10
-68.9101
 20
-93.41844999999999
 30
0.0
  0
VERTEX
  5
111
  8
0
 10
-68.9101
 20
-88.07745
 30
0.0
  0
VERTEX
  5
112
  8
0
 10
-77.51850000000002
 20
-88.07745
 30
0.0
  0
SEQEND
  5
113
  8
0
  0
POLYLINE
  5
5E
  8
0
 66
     1
 10
0.0
 20
0.0
 30
0.0
 70
     1
  0
VERTEX
  5
114
  8
0
 10
68.9859
 20
-93.41844999999999
 30
0.0
  0
VERTEX
  5
115
  8
0
 10
77.5943
 20
-93.41844999999999
 30
0.0
  0
VERTEX
  5
116
  8
0
 10
77.5943
 20
-88.07745
 30
0.0
  0
VERTEX
  5
117
  8
0
 10
68.9859
 20
-88.07745
 30
0.0
  0
SEQEND
  5
118
  8
0
  0
POLYLINE
  5
5F
  8
0
 66
     1
 10
0.0
 20
0.0
 30
0.0
 70
     1
  0
VERTEX
  5
119
  8
0
 10
92.8591
 20
-93.41844999999999
 30
0.0
  0
VERTEX
  5
11A
  8
0
 10
101.4675
 20
-93.41844999999999
 30
0.0
  0
VERTEX
  5
11B
  8
0
 10
101.4675
 20
-88.07745
 30
0.0
  0
VERTEX
  5
11C
  8
0
 10
92.8591
 20
-88.07745
 30
0.0
  0
SEQEND
  5
11D
  8
0
  0
POLYLINE
  5
60
  8
0
 66
     1
 10
0.0
 20
0.0
 30
0.0
 70
     1
  0
VERTEX
  5
11E
  8
0
 10
19.7971
 20
-90.78285
 30
0.0
  0
VERTEX
  5
11F
  8
0
 10
27.51849999999999
 20
-90.78285
 30
0.0
  0
VERTEX
  5
120
  8
0
 10
27.51849999999999
 20
-86.75065
 30
0.0
  0
VERTEX
  5
121
  8
0
 10
19.7971
 20
-86.75065
 30
0.0
  0
SEQEND
  5
122
  8
0
  0
POLYLINE
  5
61
  8
0
 66
     1
 10
0.0
 20
0.0
 30
0.0
 70
     1
  0
VERTEX
  5
123
  8
0
 10
-27.26769999999999
 20
-90.78285
 30
0.0
  0
VERTEX
  5
124
  8
0
 10
-19.5463
 20
-90.78285
 30
0.0
  0
VERTEX
  5
125
  8
0
 10
-19.5463
 20
-86.75065
 30
0.0
  0
VERTEX
  5
126
  8
0
 10
-27.26769999999999
 20
-86.75065
 30
0.0
  0
SEQEND
  5
127
  8
0
  0
POLYLINE
  5
62
  8
0
 66
     1
 10
0.0
 20
0.0
 30
0.0
 70
     1
  0
VERTEX
  5
128
  8
0
 10
-124.1379
 20
119.27005
 30
0.0
  0
VERTEX
  5
129
  8
0
 10
-112.0519
 20
119.27005
 30
0.0
  0
VERTEX
  5
12A
  8
0
 10
-112.0519
 20
125.22605
 30
0.0
  0
VERTEX
  5
12B
  8
0
 10
-124.1379
 20
125.22605
 30
0.0
  0
SEQEND
  5
12C
  8
0
  0
POLYLINE
  5
63
  8
0
 66
     1
 10
0.0
 20
0.0
 30
0.0
 70
     1
  0
VERTEX
  5
12D
  8
0
 10
112.0518
 20
119.27005
 30
0.0
  0
VERTEX
  5
12E
  8
0
 10
124.1378
 20
119.27005
 30
0.0
  0
VERTEX
  5
12F
  8
0
 10
124.1378
 20
125.22605
 30
0.0
  0
VERTEX
  5
130
  8
0
 10
112.0518
 20
125.22605
 30
0.0
  0
SEQEND
  5
131
  8
0
  0
POLYLINE
  5
64
  8
0
 66
     1
 10
0.0
 20
0.0
 30
0.0
 70
     1
  0
VERTEX
  5
132
  8
0
 10
-87.6671
 20
141.14585
 30
0.0
  0
VERTEX
  5
133
  8
0
 10
-97.86240000000004
 20
141.86055
 30
0.0
  0
VERTEX
  5
134
  8
0
 10
-97.91890000000001
 20
137.18415
 30
0.0
  0
VERTEX
  5
135
  8
0
 10
-87.93529999999998
 20
136.48905
 30
0.0
  0
SEQEND
  5
136
  8
0
  0
POLYLINE
  5
65
  8
0
 66
     1
 10
0.0
 20
0.0
 30
0.0
 70
     1
  0
VERTEX
  5
137
  8
0
 10
-65.46030000000002
 20
114.12235
 30
0.0
  0
VERTEX
  5
138
  8
0
 10
-65.8397
 20
111.07785
 30
0.0
  0
VERTEX
  5
139
  8
0
 10
-70.7809
 20
111.73465
 30
0.0
  0
VERTEX
  5
13A
  8
0
 10
-70.40100000000001
 20
114.74765
 30
0.0
  0
SEQEND
  5
13B
  8
0
  0
POLYLINE
  5
66
  8
0
 66
     1
 10
0.0
 20
0.0
 30
0.0
 70
     1
  0
VERTEX
  5
13C
  8
0
 10
-72.81139999999999
 20
119.48755
 30
0.0
  0
VERTEX
  5
13D
  8
0
 10
-68.4022
 20
119.48755
 30
0.0
  0
VERTEX
  5
13E
  8
0
 10
-68.4022
 20
128.77635
 30
0.0
  0
VERTEX
  5
13F
  8
0
 10
-72.81139999999999
 20
128.77635
 30
0.0
  0
SEQEND
  5
140
  8
0
  0
POLYLINE
  5
67
  8
0
 66
     1
 10
0.0
 20
0.0
 30
0.0
 70
     1
  0
VERTEX
  5
141
  8
0
 10
68.402
 20
119.48755
 30
0.0
  0
VERTEX
  5
142
  8
0
 10
72.8112
 20
119.48755
 30
0.0
  0
VERTEX
  5
143
  8
0
 10
72.8112
 20
128.77635
 30
0.0
  0
VERTEX
  5
144
  8
0
 10
68.402
 20
128.77635
 30
0.0
  0
SEQEND
  5
145
  8
0
  0
POLYLINE
  5
68
  8
0
 66
     1
 10
0.0
 20
0.0
 30
0.0
 70
     1
  0
VERTEX
  5
146
  8
0
 10
97.8623
 20
141.86055
 30
0.0
  0
VERTEX
  5
147
  8
0
 10
87.667
 20
141.14585
 30
0.0
  0
VERTEX
  5
148
  8
0
 10
87.9352
 20
136.48905
 30
0.0
  0
VERTEX
  5
149
  8
0
 10
97.9188
 20
137.18415
 30
0.0
  0
SEQEND
  5
14A
  8
0
  0
POLYLINE
  5
69
  8
0
 66
     1
 10
0.0
 20
0.0
 30
0.0
 70
     1
  0
VERTEX
  5
14B
  8
0
 10
70.40090000000001
 20
114.74765
 30
0.0
  0
VERTEX
  5
14C
  8
0
 10
65.4602
 20
114.12235
 30
0.0
  0
VERTEX
  5
14D
  8
0
 10
65.86439999999999
 20
111.08115
 30
0.0
  0
VERTEX
  5
14E
  8
0
 10
70.7808
 20
111.73465
 30
0.0
  0
SEQEND
  5
14F
  8
0
  0
POLYLINE
  5
6A
  8
0
 66
     1
 10
0.0
 20
0.0
 30
0.0
 70
     1
  0
VERTEX
  5
150
  8
0
 10
-56.2029
 20
75.57454999999999
 30
0.0
  0
VERTEX
  5
151
  8
0
 10
-60.45140000000001
 20
75.32554999999999
 30
0.0
  0
VERTEX
  5
152
  8
0
 10
-59.9341
 20
67.51945
 30
0.0
  0
VERTEX
  5
153
  8
0
 10
-55.7662
 20
67.70915
 30
0.0
  0
SEQEND
  5
154
  8
0
  0
POLYLINE
  5
6B
  8
0
 66
     1
 10
0.0
 20
0.0
 30
0.0
 70
     1
  0
VERTEX
  5
155
  8
0
 10
60.48609999999999
 20
75.33165
 30
0.0
  0
VERTEX
  5
156
  8
0
 10
56.2028
 20
75.57454999999999
 30
0.0
  0
VERTEX
  5
157
  8
0
 10
55.76609999999999
 20
67.70915
 30
0.0
  0
VERTEX
  5
158
  8
0
 10
59.941
 20
67.51865000000001
 30
0.0
  0
SEQEND
  5
159
  8
0
  0
POLYLINE
  5
6C
  8
0
 66
     1
 10
0.0
 20
0.0
 30
0.0
 70
     1
  0
VERTEX
  5
15A
  8
0
 10
41.0577
 20
0.8156500000000051
 30
0.0
  0
VERTEX
  5
15B
  8
0
 10
37.27500000000001
 20
-0.3543500000000108
 30
0.0
  0
VERTEX
  5
15C
  8
0
 10
39.59909999999999
 20
-7.821449999999999
 30
0.0
  0
VERTEX
  5
15D
  8
0
 10
43.36869999999999
 20
-6.655450000000002
 30
0.0
  0
SEQEND
  5
15E
  8
0
  0
POLYLINE
  5
6D
  8
0
 66
     1
 10
0.0
 20
0.0
 30
0.0
 70
     1
  0
VERTEX
  5
15F
  8
0
 10
-37.27519999999998
 20
-0.3543500000000108
 30
0.0
  0
VERTEX
  5
160
  8
0
 10
-41.05790000000002
 20
0.8156500000000051
 30
0.0
  0
VERTEX
  5
161
  8
0
 10
-43.3689
 20
-6.655450000000002
 30
0.0
  0
VERTEX
  5
162
  8
0
 10
-39.5993
 20
-7.821449999999999
 30
0.0
  0
SEQEND
  5
163
  8
0
  0
POLYLINE
  5
6E
  8
0
 66
     1
 10
0.0
 20
0.0
 30
0.0
 70
     1
  0
VERTEX
  5
164
  8
0
 10
-122.0492
 20
-83.66285
 30
0.0
  0
VERTEX
  5
165
  8
0
 10
-122.0492
 20
-43.83484999999999
 30
0.0
  0
VERTEX
  5
166
  8
0
 10
122.125
 20
-43.77725000000001
 30
0.0
  0
VERTEX
  5
167
  8
0
 10
122.125
 20
-83.60555
 30
0.0
  0
VERTEX
  5
168
  8
0
 10
15.94370000000001
 20
-83.66265
 30
0.0
  0
VERTEX
  5
169
  8
0
 10
15.94370000000001
 20
-92.26595
 30
0.0
  0
VERTEX
  5
16A
  8
0
 10
43.2552
 20
-102.86965
 30
0.0
  0
VERTEX
  5
16B
  8
0
 10
45.1002
 20
-105.27055
 30
0.0
  0
VERTEX
  5
16C
  8
0
 10
41.50139999999999
 20
-118.07485
 30
0.0
  0
VERTEX
  5
16D
  8
0
 10
-41.19640000000001
 20
-118.07485
 30
0.0
  0
VERTEX
  5
16E
  8
0
 10
-44.79519999999999
 20
-105.27035
 30
0.0
  0
VERTEX
  5
16F
  8
0
 10
-42.9503
 20
-102.86965
 30
0.0
  0
VERTEX
  5
170
  8
0
 10
-15.6387
 20
-92.26565
 30
0.0
  0
VERTEX
  5
171
  8
0
 10
-15.6387
 20
-83.66265
 30
0.0
  0
SEQEND
  5
172
  8
0
  0
POLYLINE
  5
6F
  8
0
 66
     1
 10
0.0
 20
0.0
 30
0.0
 70
     1
  0
VERTEX
  5
173
  8
0
 10
-127.7222
 20
-0.4799500000000023
 30
0.0
  0
VERTEX
  5
174
  8
0
 10
-135.2127
 20
-1.995650000000012
 30
0.0
  0
VERTEX
  5
175
  8
0
 10
-134.5155
 20
-5.833049999999986
 30
0.0
  0
VERTEX
  5
176
  8
0
 10
-126.8987
 20
-4.446049999999985
 30
0.0
  0
SEQEND
  5
177
  8
0
  0
POLYLINE
  5
70
  8
0
 66
     1
 10
0.0
 20
0.0
 30
0.0
 70
     1
  0
VERTEX
  5
178
  8
0
 10
127.798
 20
-0.4223499999999945
 30
0.0
  0
VERTEX
  5
179
  8
0
 10
135.2885
 20
-1.938050000000004
 30
0.0
  0
VERTEX
  5
17A
  8
0
 10
134.5913
 20
-5.775450000000006
 30
0.0
  0
VERTEX
  5
17B
  8
0
 10
126.9745
 20
-4.388450000000006
 30
0.0
  0
SEQEND
  5
17C
  8
0
  0
POLYLINE
  5
71
  8
0
 66
     1
 10
0.0
 20
0.0
 30
0.0
 70
     1
  0
VERTEX
  5
17D
  8
0
 10
143.1646497772105
 20
126.1963902370058
 30
0.0
 42
0.9977680739263611
  0
VERTEX
  5
17E
  8
0
 10
143.2182752898578
 20
118.1965899419983
 30
0.0
 42
0.9977680739280814
  0
VERTEX
  5
17F
  8
0
 10
143.2004
 20
126.1965499999999
 30
0.0
 42
0.0011172098009001
  0
VERTEX
  5
180
  8
0
 10
143.1825247101094
 20
126.196510059052
 30
0.0
 42
0.0011172098021054
  0
SEQEND
  5
181
  8
0
  0
POLYLINE
  5
72
  8
0
 66
     1
 10
0.0
 20
0.0
 30
0.0
 70
     1
  0
VERTEX
  5
182
  8
0
 10
-143.2111502227895
 20
126.1963902370058
 30
0.0
 42
0.9977680739263484
  0
VERTEX
  5
183
  8
0
 10
-143.1575247101423
 20
118.1965899420047
 30
0.0
 42
0.997768073928076
  0
VERTEX
  5
184
  8
0
 10
-143.1754
 20
126.1965499999999
 30
0.0
 42
0.0011172098008983
  0
VERTEX
  5
185
  8
0
 10
-143.1932752898907
 20
126.196510059052
 30
0.0
 42
0.0011172098020965
  0
SEQEND
  5
186
  8
0
  0
POLYLINE
  5
73
  8
0
 66
     1
 10
0.0
 20
0.0
 30
0.0
 70
     1
  0
VERTEX
  5
187
  8
0
 10
-153.5743000000001
 20
-0.5074500000000057
 30
0.0
  0
VERTEX
  5
188
  8
0
 10
-147.0934
 20
-16.58625000000001
 30
0.0
  0
VERTEX
  5
189
  8
0
 10
-139.9170999999999
 20
-60.94754999999999
 30
0.0
  0
VERTEX
  5
18A
  8
0
 10
-134.0945
 20
-89.15675
 30
0.0
  0
VERTEX
  5
18B
  8
0
 10
-127.7304
 20
-115.63675
 30
0.0
  0
VERTEX
  5
18C
  8
0
 10
-102.0362
 20
-115.61015
 30
0.0
  0
VERTEX
  5
18D
  8
0
 10
-101.9153
 20
-111.05095
 30
0.0
  0
VERTEX
  5
18E
  8
0
 10
-103.5337
 20
-108.58755
 30
0.0
  0
VERTEX
  5
18F
  8
0
 10
-90.0823
 20
-108.58795
 30
0.0
  0
VERTEX
  5
190
  8
0
 10
-91.9358
 20
-111.12965
 30
0.0
  0
VERTEX
  5
191
  8
0
 10
-91.9358
 20
-115.61015
 30
0.0
  0
VERTEX
  5
192
  8
0
 10
-76.64510000000001
 20
-115.61015
 30
0.0
  0
VERTEX
  5
193
  8
0
 10
-76.52429999999998
 20
-111.05095
 30
0.0
  0
VERTEX
  5
194
  8
0
 10
-78.14260000000002
 20
-108.58755
 30
0.0
  0
VERTEX
  5
195
  8
0
 10
-64.69130000000001
 20
-108.58795
 30
0.0
  0
VERTEX
  5
196
  8
0
 10
-66.56740000000002
 20
-111.11315
 30
0.0
  0
VERTEX
  5
197
  8
0
 10
-66.67830000000001
 20
-115.61015
 30
0.0
  0
VERTEX
  5
198
  8
0
 10
-48.2586
 20
-115.50855
 30
0.0
  0
VERTEX
  5
199
  8
0
 10
-48.2586
 20
-140.70405
 30
0.0
  0
VERTEX
  5
19A
  8
0
 10
-28.2818
 20
-140.70405
 30
0.0
  0
VERTEX
  5
19B
  8
0
 10
-28.2818
 20
-144.86625
 30
0.0
  0
VERTEX
  5
19C
  8
0
 10
-30.09829999999999
 20
-148.15285
 30
0.0
  0
VERTEX
  5
19D
  8
0
 10
-16.67240000000001
 20
-148.15285
 30
0.0
  0
VERTEX
  5
19E
  8
0
 10
-18.51859999999999
 20
-144.86625
 30
0.0
  0
VERTEX
  5
19F
  8
0
 10
-18.51859999999999
 20
-140.70405
 30
0.0
  0
VERTEX
  5
1A0
  8
0
 10
18.79939999999999
 20
-140.70405
 30
0.0
  0
VERTEX
  5
1A1
  8
0
 10
18.79939999999999
 20
-144.86625
 30
0.0
  0
VERTEX
  5
1A2
  8
0
 10
16.9829
 20
-148.15285
 30
0.0
  0
VERTEX
  5
1A3
  8
0
 10
30.40879999999999
 20
-148.15285
 30
0.0
  0
VERTEX
  5
1A4
  8
0
 10
28.5626
 20
-144.86625
 30
0.0
  0
VERTEX
  5
1A5
  8
0
 10
28.5626
 20
-140.70405
 30
0.0
  0
VERTEX
  5
1A6
  8
0
 10
48.56360000000001
 20
-140.70405
 30
0.0
  0
VERTEX
  5
1A7
  8
0
 10
48.56360000000001
 20
-115.45225
 30
0.0
  0
VERTEX
  5
1A8
  8
0
 10
66.7541
 20
-115.55255
 30
0.0
  0
VERTEX
  5
1A9
  8
0
 10
66.64320000000001
 20
-111.05555
 30
0.0
  0
VERTEX
  5
1AA
  8
0
 10
64.7671
 20
-108.53035
 30
0.0
  0
VERTEX
  5
1AB
  8
0
 10
78.2186
 20
-108.52995
 30
0.0
  0
VERTEX
  5
1AC
  8
0
 10
76.6001
 20
-110.99335
 30
0.0
  0
VERTEX
  5
1AD
  8
0
 10
76.72109999999999
 20
-115.55255
 30
0.0
  0
VERTEX
  5
1AE
  8
0
 10
92.145
 20
-115.55255
 30
0.0
  0
VERTEX
  5
1AF
  8
0
 10
92.0342
 20
-111.05555
 30
0.0
  0
VERTEX
  5
1B0
  8
0
 10
90.1581
 20
-108.53045
 30
0.0
  0
VERTEX
  5
1B1
  8
0
 10
103.6094
 20
-108.52995
 30
0.0
  0
VERTEX
  5
1B2
  8
0
 10
101.9911
 20
-110.99335
 30
0.0
  0
VERTEX
  5
1B3
  8
0
 10
102.112
 20
-115.55255
 30
0.0
  0
VERTEX
  5
1B4
  8
0
 10
127.8062
 20
-115.57915
 30
0.0
  0
VERTEX
  5
1B5
  8
0
 10
134.1703
 20
-89.09915
 30
0.0
  0
VERTEX
  5
1B6
  8
0
 10
139.9929
 20
-60.88995
 30
0.0
  0
VERTEX
  5
1B7
  8
0
 10
147.1692
 20
-16.52865
 30
0.0
  0
VERTEX
  5
1B8
  8
0
 10
153.6501
 20
-0.4498499999999979
 30
0.0
  0
VERTEX
  5
1B9
  8
0
 10
153.6501
 20
50.61275000000001
 30
0.0
  0
VERTEX
  5
1BA
  8
0
 10
117.1818
 20
50.61275000000001
 30
0.0
  0
VERTEX
  5
1BB
  8
0
 10
117.1818
 20
111.45205
 30
0.0
  0
VERTEX
  5
1BC
  8
0
 10
143.1574000147
 20
111.45205
 30
0.0
  0
VERTEX
  5
1BD
  8
0
 10
143.1956668974225
 20
111.4521053790084
 30
0.0
  0
VERTEX
  5
1BE
  8
0
 10
143.2339052712971
 20
111.452271405276
 30
0.0
  0
VERTEX
  5
1BF
  8
0
 10
143.2721149695588
 20
111.4525479129217
 30
0.0
  0
VERTEX
  5
1C0
  8
0
 10
143.3102958107428
 20
111.4529347360641
 30
0.0
  0
VERTEX
  5
1C1
  8
0
 10
143.3484476133843
 20
111.4534317088219
 30
0.0
  0
VERTEX
  5
1C2
  8
0
 10
143.3865701960184
 20
111.4540386653142
 30
0.0
  0
VERTEX
  5
1C3
  8
0
 10
143.4246633771802
 20
111.4547554396596
 30
0.0
  0
VERTEX
  5
1C4
  8
0
 10
143.4627269754049
 20
111.4555818659769
 30
0.0
  0
VERTEX
  5
1C5
  8
0
 10
143.5007608092276
 20
111.4565177783848
 30
0.0
  0
VERTEX
  5
1C6
  8
0
 10
143.5387646971836
 20
111.4575630110022
 30
0.0
  0
VERTEX
  5
1C7
  8
0
 10
143.9558739555042
 20
111.4630562228216
 30
0.0
  0
VERTEX
  5
1C8
  8
0
 10
144.3635136186027
 20
111.4793535548325
 30
0.0
  0
VERTEX
  5
1C9
  8
0
 10
144.7617765186838
 20
111.5061815518642
 30
0.0
  0
VERTEX
  5
1CA
  8
0
 10
145.1507554879522
 20
111.5432667587459
 30
0.0
  0
VERTEX
  5
1CB
  8
0
 10
145.5305433586126
 20
111.5903357203068
 30
0.0
  0
VERTEX
  5
1CC
  8
0
 10
145.90123296287
 20
111.6471149813761
 30
0.0
  0
VERTEX
  5
1CD
  8
0
 10
146.2629171329289
 20
111.713331086783
 30
0.0
  0
VERTEX
  5
1CE
  8
0
 10
146.615688700994
 20
111.7887105813568
 30
0.0
  0
VERTEX
  5
1CF
  8
0
 10
146.9596404992703
 20
111.8729800099267
 30
0.0
  0
VERTEX
  5
1D0
  8
0
 10
147.2948653599624
 20
111.9658659173218
 30
0.0
  0
VERTEX
  5
1D1
  8
0
 10
147.621456115275
 20
112.0670948483715
 30
0.0
  0
VERTEX
  5
1D2
  8
0
 10
147.9395055974129
 20
112.1763933479048
 30
0.0
  0
VERTEX
  5
1D3
  8
0
 10
148.2491066385809
 20
112.2934879607511
 30
0.0
  0
VERTEX
  5
1D4
  8
0
 10
148.5503520709837
 20
112.4181052317395
 30
0.0
  0
VERTEX
  5
1D5
  8
0
 10
148.843334726826
 20
112.5499717056993
 30
0.0
  0
VERTEX
  5
1D6
  8
0
 10
149.1281474383127
 20
112.6888139274597
 30
0.0
  0
VERTEX
  5
1D7
  8
0
 10
149.4048830376483
 20
112.8343584418499
 30
0.0
  0
VERTEX
  5
1D8
  8
0
 10
149.6736343570378
 20
112.9863317936991
 30
0.0
  0
VERTEX
  5
1D9
  8
0
 10
149.9344942286858
 20
113.1444605278365
 30
0.0
  0
VERTEX
  5
1DA
  8
0
 10
150.1875554847971
 20
113.3084711890913
 30
0.0
  0
VERTEX
  5
1DB
  8
0
 10
150.4329109575764
 20
113.4780903222928
 30
0.0
  0
VERTEX
  5
1DC
  8
0
 10
150.6706534792285
 20
113.6530444722702
 30
0.0
  0
VERTEX
  5
1DD
  8
0
 10
150.9008758819581
 20
113.8330601838526
 30
0.0
  0
VERTEX
  5
1DE
  8
0
 10
151.1236709979701
 20
114.0178640018694
 30
0.0
  0
VERTEX
  5
1DF
  8
0
 10
151.339131659469
 20
114.2071824711497
 30
0.0
  0
VERTEX
  5
1E0
  8
0
 10
151.5473506986597
 20
114.4007421365227
 30
0.0
  0
VERTEX
  5
1E1
  8
0
 10
151.7484209477469
 20
114.5982695428177
 30
0.0
  0
VERTEX
  5
1E2
  8
0
 10
151.9424352389353
 20
114.7994912348639
 30
0.0
  0
VERTEX
  5
1E3
  8
0
 10
152.309667276435
 20
115.2119236555266
 30
0.0
  0
VERTEX
  5
1E4
  8
0
 10
152.6497894687968
 20
115.6358517571445
 30
0.0
  0
VERTEX
  5
1E5
  8
0
 10
152.9635444736585
 20
116.0690878983515
 30
0.0
  0
VERTEX
  5
1E6
  8
0
 10
153.2516749486582
 20
116.5094444377812
 30
0.0
  0
VERTEX
  5
1E7
  8
0
 10
153.5149235514339
 20
116.9547337340673
 30
0.0
  0
VERTEX
  5
1E8
  8
0
 10
153.7540329396235
 20
117.4027681458436
 30
0.0
  0
VERTEX
  5
1E9
  8
0
 10
153.969745770865
 20
117.8513600317439
 30
0.0
  0
VERTEX
  5
1EA
  8
0
 10
154.1628047027964
 20
118.2983217504017
 30
0.0
  0
VERTEX
  5
1EB
  8
0
 10
154.3339523930557
 20
118.741465660451
 30
0.0
  0
VERTEX
  5
1EC
  8
0
 10
154.4839314992809
 20
119.1786041205253
 30
0.0
  0
VERTEX
  5
1ED
  8
0
 10
154.6134846791098
 20
119.6075494892584
 30
0.0
  0
VERTEX
  5
1EE
  8
0
 10
154.7233545901806
 20
120.0261141252841
 30
0.0
  0
VERTEX
  5
1EF
  8
0
 10
154.8142838901312
 20
120.4321103872361
 30
0.0
  0
VERTEX
  5
1F0
  8
0
 10
154.8870152365995
 20
120.823350633748
 30
0.0
  0
VERTEX
  5
1F1
  8
0
 10
154.9422912872236
 20
121.1976472234537
 30
0.0
  0
VERTEX
  5
1F2
  8
0
 10
154.9808546996414
 20
121.5528125149869
 30
0.0
  0
VERTEX
  5
1F3
  8
0
 10
155.0034481314908
 20
121.8866588669812
 30
0.0
  0
VERTEX
  5
1F4
  8
0
 10
155.01081424041
 20
122.1969986380705
 30
0.0
  0
VERTEX
  5
1F5
  8
0
 10
155.0006426230885
 20
122.5801287330408
 30
0.0
  0
VERTEX
  5
1F6
  8
0
 10
154.9699961002575
 20
122.9783284247629
 30
0.0
  0
VERTEX
  5
1F7
  8
0
 10
154.9186771656177
 20
123.3898118234533
 30
0.0
  0
VERTEX
  5
1F8
  8
0
 10
154.8464883128698
 20
123.8127930393286
 30
0.0
  0
VERTEX
  5
1F9
  8
0
 10
154.7532320357144
 20
124.2454861826052
 30
0.0
  0
VERTEX
  5
1FA
  8
0
 10
154.6387108278521
 20
124.6861053634998
 30
0.0
  0
VERTEX
  5
1FB
  8
0
 10
154.5027271829834
 20
125.1328646922289
 30
0.0
  0
VERTEX
  5
1FC
  8
0
 10
154.3450835948092
 20
125.583978279009
 30
0.0
  0
VERTEX
  5
1FD
  8
0
 10
154.16558255703
 20
126.0376602340568
 30
0.0
  0
VERTEX
  5
1FE
  8
0
 10
153.9640265633464
 20
126.4921246675887
 30
0.0
  0
VERTEX
  5
1FF
  8
0
 10
153.740218107459
 20
126.9455856898212
 30
0.0
  0
VERTEX
  5
200
  8
0
 10
153.4939596830684
 20
127.3962574109711
 30
0.0
  0
VERTEX
  5
201
  8
0
 10
153.2250537838754
 20
127.8423539412547
 30
0.0
  0
VERTEX
  5
202
  8
0
 10
152.9333029035805
 20
128.2820893908887
 30
0.0
  0
VERTEX
  5
203
  8
0
 10
152.6185095358843
 20
128.7136778700896
 30
0.0
  0
VERTEX
  5
204
  8
0
 10
152.2804761744875
 20
129.1353334890739
 30
0.0
  0
VERTEX
  5
205
  8
0
 10
151.9190053130907
 20
129.5452703580582
 30
0.0
  0
VERTEX
  5
206
  8
0
 10
151.5338994453945
 20
129.9417025872591
 30
0.0
  0
VERTEX
  5
207
  8
0
 10
151.1249610650996
 20
130.322844286893
 30
0.0
  0
VERTEX
  5
208
  8
0
 10
150.6919926659066
 20
130.6869095671767
 30
0.0
  0
VERTEX
  5
209
  8
0
 10
150.4664354885047
 20
130.8619804595048
 30
0.0
  0
VERTEX
  5
20A
  8
0
 10
150.234796741516
 20
131.0321125383265
 30
0.0
  0
VERTEX
  5
20B
  8
0
 10
149.9970517366531
 20
131.1970825674189
 30
0.0
  0
VERTEX
  5
20C
  8
0
 10
149.7531757856286
 20
131.3566673105591
 30
0.0
  0
VERTEX
  5
20D
  8
0
 10
149.503144200155
 20
131.5106435315241
 30
0.0
  0
VERTEX
  5
20E
  8
0
 10
149.246932291945
 20
131.658787994091
 30
0.0
  0
VERTEX
  5
20F
  8
0
 10
148.984515372711
 20
131.8008774620369
 30
0.0
  0
VERTEX
  5
210
  8
0
 10
148.7158687541657
 20
131.9366886991387
 30
0.0
  0
VERTEX
  5
211
  8
0
 10
148.4409677480217
 20
132.0659984691737
 30
0.0
  0
VERTEX
  5
212
  8
0
 10
148.1597876659915
 20
132.1885835359188
 30
0.0
  0
VERTEX
  5
213
  8
0
 10
147.8723038197877
 20
132.3042206631513
 30
0.0
  0
VERTEX
  5
214
  8
0
 10
147.5784915211229
 20
132.412686614648
 30
0.0
  0
VERTEX
  5
215
  8
0
 10
147.2783260817097
 20
132.513758154186
 30
0.0
  0
VERTEX
  5
216
  8
0
 10
146.9717828132606
 20
132.6072120455425
 30
0.0
  0
VERTEX
  5
217
  8
0
 10
146.6588370274882
 20
132.6928250524946
 30
0.0
  0
VERTEX
  5
218
  8
0
 10
146.3394640361051
 20
132.7703739388192
 30
0.0
  0
VERTEX
  5
219
  8
0
 10
146.013639150824
 20
132.8396354682935
 30
0.0
  0
VERTEX
  5
21A
  8
0
 10
145.6813376833572
 20
132.9003864046944
 30
0.0
  0
VERTEX
  5
21B
  8
0
 10
145.3425349454176
 20
132.9524035117992
 30
0.0
  0
VERTEX
  5
21C
  8
0
 10
144.9972062487175
 20
132.9954635533848
 30
0.0
  0
VERTEX
  5
21D
  8
0
 10
144.6453269049696
 20
133.0293432932284
 30
0.0
  0
VERTEX
  5
21E
  8
0
 10
144.2868722258865
 20
133.0538194951069
 30
0.0
  0
VERTEX
  5
21F
  8
0
 10
143.9218175231808
 20
133.0686689227975
 30
0.0
  0
VERTEX
  5
220
  8
0
 10
143.5501381085649
 20
133.0736683400773
 30
0.0
  0
VERTEX
  5
221
  8
0
 10
143.5127
 20
133.07475
 30
0.0
  0
VERTEX
  5
222
  8
0
 10
135.1581
 20
144.49045
 30
0.0
  0
VERTEX
  5
223
  8
0
 10
121.8041
 20
148.15285
 30
0.0
  0
VERTEX
  5
224
  8
0
 10
68.2732
 20
145.00405
 30
0.0
  0
VERTEX
  5
225
  8
0
 10
47.69630000000001
 20
142.05365
 30
0.0
  0
VERTEX
  5
226
  8
0
 10
15.4504
 20
142.05365
 30
0.0
  0
VERTEX
  5
227
  8
0
 10
0.0583000000000027
 20
132.12195
 30
0.0
  0
VERTEX
  5
228
  8
0
 10
-15.48859999999999
 20
142.05365
 30
0.0
  0
VERTEX
  5
229
  8
0
 10
-47.72030000000001
 20
142.05365
 30
0.0
  0
VERTEX
  5
22A
  8
0
 10
-68.2733
 20
145.00405
 30
0.0
  0
VERTEX
  5
22B
  8
0
 10
-121.8042
 20
148.15285
 30
0.0
  0
VERTEX
  5
22C
  8
0
 10
-135.1582
 20
144.49045
 30
0.0
  0
VERTEX
  5
22D
  8
0
 10
-143.5208500000001
 20
133.0745
 30
0.0
  0
VERTEX
  5
22E
  8
0
 10
-143.5501381085649
 20
133.0736683400773
 30
0.0
  0
VERTEX
  5
22F
  8
0
 10
-143.5875460718274
 20
133.0724812787234
 30
0.0
  0
VERTEX
  5
230
  8
0
 10
-143.6249237211392
 20
133.0711889748104
 30
0.0
  0
VERTEX
  5
231
  8
0
 10
-143.6622708878517
 20
133.0697915872097
 30
0.0
  0
VERTEX
  5
232
  8
0
 10
-143.6995874033168
 20
133.0682892747931
 30
0.0
  0
VERTEX
  5
233
  8
0
 10
-144.2813719588935
 20
133.0339562044084
 30
0.0
  0
VERTEX
  5
234
  8
0
 10
-144.8554102677162
 20
132.9713832296285
 30
0.0
  0
VERTEX
  5
235
  8
0
 10
-145.4209991144148
 20
132.8814203124082
 30
0.0
  0
VERTEX
  5
236
  8
0
 10
-145.977435283619
 20
132.7649174147019
 30
0.0
  0
VERTEX
  5
237
  8
0
 10
-146.5240155599586
 20
132.6227244984641
 30
0.0
  0
VERTEX
  5
238
  8
0
 10
-147.0600367280635
 20
132.4556915256494
 30
0.0
  0
VERTEX
  5
239
  8
0
 10
-147.5847955725633
 20
132.2646684582123
 30
0.0
  0
VERTEX
  5
23A
  8
0
 10
-148.0975888780879
 20
132.0505052581074
 30
0.0
  0
VERTEX
  5
23B
  8
0
 10
-148.597713429267
 20
131.8140518872892
 30
0.0
  0
VERTEX
  5
23C
  8
0
 10
-149.0844660107305
 20
131.5561583077123
 30
0.0
  0
VERTEX
  5
23D
  8
0
 10
-149.5571434071081
 20
131.2776744813311
 30
0.0
  0
VERTEX
  5
23E
  8
0
 10
-150.0150424030296
 20
130.9794503701002
 30
0.0
  0
VERTEX
  5
23F
  8
0
 10
-150.4574597831247
 20
130.6623359359741
 30
0.0
  0
VERTEX
  5
240
  8
0
 10
-150.8836923320233
 20
130.3271811409074
 30
0.0
  0
VERTEX
  5
241
  8
0
 10
-151.2930368343552
 20
129.9748359468547
 30
0.0
  0
VERTEX
  5
242
  8
0
 10
-151.6847900747501
 20
129.6061503157704
 30
0.0
  0
VERTEX
  5
243
  8
0
 10
-152.0582488378378
 20
129.2219742096091
 30
0.0
  0
VERTEX
  5
244
  8
0
 10
-152.412709908248
 20
128.8231575903253
 30
0.0
  0
VERTEX
  5
245
  8
0
 10
-152.7474700706107
 20
128.4105504198736
 30
0.0
  0
VERTEX
  5
246
  8
0
 10
-153.0618261095555
 20
127.9850026602085
 30
0.0
  0
VERTEX
  5
247
  8
0
 10
-153.3550748097122
 20
127.5473642732845
 30
0.0
  0
VERTEX
  5
248
  8
0
 10
-153.6265129557107
 20
127.0984852210563
 30
0.0
  0
VERTEX
  5
249
  8
0
 10
-153.8754373321806
 20
126.6392154654782
 30
0.0
  0
VERTEX
  5
24A
  8
0
 10
-154.1011447237518
 20
126.1704049685048
 30
0.0
  0
VERTEX
  5
24B
  8
0
 10
-154.3029319150541
 20
125.6929036920908
 30
0.0
  0
VERTEX
  5
24C
  8
0
 10
-154.4800956907173
 20
125.2075615981906
 30
0.0
  0
VERTEX
  5
24D
  8
0
 10
-154.631932835371
 20
124.7152286487587
 30
0.0
  0
VERTEX
  5
24E
  8
0
 10
-154.7577401336452
 20
124.2167548057497
 30
0.0
  0
VERTEX
  5
24F
  8
0
 10
-154.8568143701696
 20
123.7129900311182
 30
0.0
  0
VERTEX
  5
250
  8
0
 10
-154.9284523295739
 20
123.2047842868186
 30
0.0
  0
VERTEX
  5
251
  8
0
 10
-154.971950796488
 20
122.6929875348055
 30
0.0
  0
VERTEX
  5
252
  8
0
 10
-154.9866065555416
 20
122.1784497370335
 30
0.0
  0
VERTEX
  5
253
  8
0
 10
-154.9732857721953
 20
121.7086014798227
 30
0.0
  0
VERTEX
  5
254
  8
0
 10
-154.9336188295092
 20
121.2372382857449
 30
0.0
  0
VERTEX
  5
255
  8
0
 10
-154.8680488385126
 20
120.7653825211318
 30
0.0
  0
VERTEX
  5
256
  8
0
 10
-154.7770189102347
 20
120.2940565523152
 30
0.0
  0
VERTEX
  5
257
  8
0
 10
-154.6609721557048
 20
119.824282745627
 30
0.0
  0
VERTEX
  5
258
  8
0
 10
-154.5203516859522
 20
119.357083467399
 30
0.0
  0
VERTEX
  5
259
  8
0
 10
-154.355600612006
 20
118.8934810839629
 30
0.0
  0
VERTEX
  5
25A
  8
0
 10
-154.1671620448956
 20
118.4344979616505
 30
0.0
  0
VERTEX
  5
25B
  8
0
 10
-153.9554790956502
 20
117.9811564667936
 30
0.0
  0
VERTEX
  5
25C
  8
0
 10
-153.7209948752991
 20
117.534478965724
 30
0.0
  0
VERTEX
  5
25D
  8
0
 10
-153.4641524948715
 20
117.0954878247736
 30
0.0
  0
VERTEX
  5
25E
  8
0
 10
-153.1853950653967
 20
116.6652054102741
 30
0.0
  0
VERTEX
  5
25F
  8
0
 10
-152.885165697904
 20
116.2446540885573
 30
0.0
  0
VERTEX
  5
260
  8
0
 10
-152.5639075034225
 20
115.834856225955
 30
0.0
  0
VERTEX
  5
261
  8
0
 10
-152.2220635929817
 20
115.436834188799
 30
0.0
  0
VERTEX
  5
262
  8
0
 10
-151.8600770776106
 20
115.0516103434211
 30
0.0
  0
VERTEX
  5
263
  8
0
 10
-151.4783910683386
 20
114.6802070561532
 30
0.0
  0
VERTEX
  5
264
  8
0
 10
-151.0774486761949
 20
114.3236466933269
 30
0.0
  0
VERTEX
  5
265
  8
0
 10
-150.6576930122088
 20
113.9829516212741
 30
0.0
  0
VERTEX
  5
266
  8
0
 10
-150.2195671874096
 20
113.6591442063265
 30
0.0
  0
VERTEX
  5
267
  8
0
 10
-149.7635143128264
 20
113.3532468148161
 30
0.0
  0
VERTEX
  5
268
  8
0
 10
-149.2899774994886
 20
113.0662818130745
 30
0.0
  0
VERTEX
  5
269
  8
0
 10
-148.7993998584255
 20
112.7992715674336
 30
0.0
  0
VERTEX
  5
26A
  8
0
 10
-148.2922245006662
 20
112.5532384442252
 30
0.0
  0
VERTEX
  5
26B
  8
0
 10
-147.76889453724
 20
112.329204809781
 30
0.0
  0
VERTEX
  5
26C
  8
0
 10
-147.2298530791763
 20
112.1281930304329
 30
0.0
  0
VERTEX
  5
26D
  8
0
 10
-146.6755432375041
 20
111.9512254725127
 30
0.0
  0
VERTEX
  5
26E
  8
0
 10
-146.1064081232529
 20
111.7993245023521
 30
0.0
  0
VERTEX
  5
26F
  8
0
 10
-145.5228908474518
 20
111.6735124862829
 30
0.0
  0
VERTEX
  5
270
  8
0
 10
-144.9254345211301
 20
111.5748117906371
 30
0.0
  0
VERTEX
  5
271
  8
0
 10
-144.6216176862208
 20
111.5359476774515
 30
0.0
  0
VERTEX
  5
272
  8
0
 10
-144.3144822553172
 20
111.5042447817462
 30
0.0
  0
VERTEX
  5
273
  8
0
 10
-144.0040836172981
 20
111.4798308993126
 30
0.0
  0
VERTEX
  5
274
  8
0
 10
-143.6904771610421
 20
111.4628338259422
 30
0.0
  0
VERTEX
  5
275
  8
0
 10
-143.6525948712019
 20
111.461352971299
 30
0.0
  0
VERTEX
  5
276
  8
0
 10
-143.6146819096355
 20
111.4599807733405
 30
0.0
  0
VERTEX
  5
277
  8
0
 10
-143.5767384578078
 20
111.4587173979479
 30
0.0
  0
VERTEX
  5
278
  8
0
 10
-143.5387646971836
 20
111.4575630110022
 30
0.0
  0
VERTEX
  5
279
  8
0
 10
-143.5007608092276
 20
111.4565177783848
 30
0.0
  0
VERTEX
  5
27A
  8
0
 10
-143.4627269754049
 20
111.4555818659769
 30
0.0
  0
VERTEX
  5
27B
  8
0
 10
-143.4246633771801
 20
111.4547554396596
 30
0.0
  0
VERTEX
  5
27C
  8
0
 10
-143.3865701960183
 20
111.4540386653142
 30
0.0
  0
VERTEX
  5
27D
  8
0
 10
-143.3484476133843
 20
111.4534317088219
 30
0.0
  0
VERTEX
  5
27E
  8
0
 10
-143.3102958107428
 20
111.4529347360641
 30
0.0
  0
VERTEX
  5
27F
  8
0
 10
-143.2721149695588
 20
111.4525479129217
 30
0.0
  0
VERTEX
  5
280
  8
0
 10
-143.2339052712971
 20
111.452271405276
 30
0.0
  0
VERTEX
  5
281
  8
0
 10
-143.1956668974224
 20
111.4521053790084
 30
0.0
  0
VERTEX
  5
282
  8
0
 10
-143.1574000146999
 20
111.45205
 30
0.0
  0
VERTEX
  5
283
  8
0
 10
-117.1819
 20
111.45205
 30
0.0
  0
VERTEX
  5
284
  8
0
 10
-117.1819
 20
50.55515
 30
0.0
  0
VERTEX
  5
285
  8
0
 10
-153.5743000000001
 20
50.55515
 30
0.0
  0
SEQEND
  5
286
  8
0
  0
POLYLINE
  5
74
  8
0
 66
     1
 10
0.0
 20
0.0
 30
0.0
 70
     1
  0
VERTEX
  5
287
  8
0
 10
84.76138756705667
 20
48.67360232362402
 30
0.0
 42
0.4142135623730951
  0
VERTEX
  5
288
  8
0
 10
67.26138756705667
 20
31.17360232362402
 30
0.0
 42
0.4142135623730951
  0
VERTEX
  5
289
  8
0
 10
84.76138756705667
 20
13.67360232362402
 30
0.0
 42
0.4142135623730951
  0
VERTEX
  5
28A
  8
0
 10
102.2613875670567
 20
31.17360232362402
 30
0.0
 42
0.4142135623730951
  0
SEQEND
  5
28B
  8
0
  0
POLYLINE
  5
75
  8
0
 66
     1
 10
0.0
 20
0.0
 30
0.0
 70
     1
  0
VERTEX
  5
28C
  8
0
 10
77.23656669781441
 20
100.7444541005074
 30
0.0
 42
0.4142135623730951
  0
VERTEX
  5
28D
  8
0
 10
68.0865666978144
 20
91.59445410050739
 30
0.0
 42
0.4142135623730951
  0
VERTEX
  5
28E
  8
0
 10
77.23656669781441
 20
82.44445410050739
 30
0.0
 42
0.4142135623730951
  0
VERTEX
  5
28F
  8
0
 10
86.38656669781442
 20
91.59445410050739
 30
0.0
 42
0.4142135623730951
  0
SEQEND
  5
290
  8
0
  0
POLYLINE
  5
76
  8
0
 66
     1
 10
0.0
 20
0.0
 30
0.0
 70
     1
  0
VERTEX
  5
291
  8
0
 10
-77.25393330218581
 20
100.74445410051
 30
0.0
 42
0.4142135623730951
  0
VERTEX
  5
292
  8
0
 10
-86.40393330218582
 20
91.59445410051002
 30
0.0
 42
0.4142135623730951
  0
VERTEX
  5
293
  8
0
 10
-77.25393330218581
 20
82.44445410051001
 30
0.0
 42
0.4142135623730951
  0
VERTEX
  5
294
  8
0
 10
-68.10393330218581
 20
91.59445410051002
 30
0.0
 42
0.4142135623730951
  0
SEQEND
  5
295
  8
0
  0
POLYLINE
  5
77
  8
0
 66
     1
 10
0.0
 20
0.0
 30
0.0
 70
     1
  0
VERTEX
  5
296
  8
0
 10
-84.77921243294809
 20
48.67360232362411
 30
0.0
 42
0.4142135623730951
  0
VERTEX
  5
297
  8
0
 10
-102.2792124329481
 20
31.17360232362411
 30
0.0
 42
0.4142135623730951
  0
VERTEX
  5
298
  8
0
 10
-84.77921243294809
 20
13.67360232362411
 30
0.0
 42
0.4142135623730951
  0
VERTEX
  5
299
  8
0
 10
-67.27921243294809
 20
31.17360232362411
 30
0.0
 42
0.4142135623730951
  0
SEQEND
  5
29A
  8
0
  0
POLYLINE
  5
78
  8
0
 66
     1
 10
0.0
 20
0.0
 30
0.0
 70
     1
  0
VERTEX
  5
29B
  8
0
 10
119.5023280132969
 20
-25.29151244221282
 30
0.0
 42
0.4142135623730951
  0
VERTEX
  5
29C
  8
0
 10
117.9780624422009
 20
-26.81577801330877
 30
0.0
 42
0.4142135623730951
  0
VERTEX
  5
29D
  8
0
 10
119.5023280132969
 20
-28.34004358440471
 30
0.0
 42
0.4142135623730951
  0
VERTEX
  5
29E
  8
0
 10
121.0265935843928
 20
-26.81577801330877
 30
0.0
 42
0.4142135623730951
  0
SEQEND
  5
29F
  8
0
  0
ENDSEC
  0
EOF
